TAYLOR - Jack Johnson
Standard EADGBE Tuning
Intro

E-----x-----------------x-----------------x-----------------------x
B-----x-----------------x-----------------x-----------------------x
G-----x-----------------x-----------------x-----------------------x
D-----x-----------------x-----------------x-1h3p1---1p0-----------x
A-1h3-x1h3p1-1-0h1p0----x-------1-2-2-2h3-x-------3-----3-1-0-----x
E-----x-----3-------1-1-x-1h2h3-----------x-------------------1-1-x

F7 C Fmj7
E---------------------x------------------------x---1---0--0-00000000-----0
B---------------------x------------------------x---4---1--1-35533110h1p0-1
G---------------------x------------------------x---2---0--0-00000000-----2
D---------------------x-3-3sd-0-3-0-2p0--------x---1---2--2--------------3
A----1---1---1---1--3-x----------------3-0-----x-------3--3--------------3
E-1h3-1h3-1h3-1h3-----x--------------------1-1-x-1-----------------------1
Verse
(C) (G) (Am) (Fmj7)
E-------------------------------------------------
B-------------------------------------------------
G------------------------------------------------- REPEAT X 8 For Verses
D------------------------------------------------- X 2 For Fills
A--2--2--0--0--0--0--0--0--2--2--0--0--3--3--0--0-
E-3--3--3--0--2--2--2--0--0--0--0--0--3--3--3--0--
Chorus
C G Am Fmj7 x 4
Bridge
E-------------------------------------------------------------
B-------------------------------------------------------------
G-------------------------------------------------------------
D--2--2--2--2--4--4--4--4--7--7--7--7---9---9---9---9---9---9-
A-3--3--3--3--5--5--5--5--8--8--8--8--10--10--10--10--10--10--
E-------------------------------------------------------------





Ваше мнение



Капча