-------------------------------------------------------------------------------
Symbol In My Driveway - Jack Johnson
-------------------------------------------------------------------------------

Tabbed by: Cody McIntosh
Email: [email protected]

Tuning: Normal - EADGBe

e|----------------------------------------------------------------|
B|----------------------------------------------------------------|
G|----------------------------------------------------------------|
D|----------------------------------------------------------------|
A|-x-7---7---9---7---7---7---9---7---7---7---9---7---7---7---9---7|
E|-x-5---5---5---5---5---5---5---5---5---5---5---5---5---5---5---5|

e|----------------------------------------------------------------|
B|----------------------------------------------------------------|
G|----------------------------------------------------------------|
D|---9---9---11--9---9---9---11--9---9---9---11--9---9---9---8---8|
A|---7---7---7---7---7---7---7---7---7---7---7---7---7---7---6---6|
E|-0--------------------------------------------------------------|

e|----------------------------------------------------------------|
B|----------------------------------------------------------------|
G|----------------------------------------------------------------|
D|---7---7---9---7---7---7---9---7---7---7---9---7---7---7---9---7|
A|---5---5---5---5---5---5---5---5---5---5---5---5---5---5---5---5|
E|----------------------------------------------------------------|

e|----------------------------------------------------------------|
B|----------------------------------------------------------------|
G|----------------------------------------------------------------|
D|----------------------------------------------------------------|
A|-0-7---7---9---7---7---7---9---7---9---9---11--9---9---9---11--9|
E|---5---5---5---5---5---5---5---5-0-7---7---7---7---7---7---7---7|

*REPEATS THROUGHOUT ENTIRE SONG*

| / slide up
| slide down
| h hammer-on
| p pull-off
| ~ vibrato
| + harmonic
| x Mute note

===============================================================================





Ваше мнение



Капча