SEXI PLEXI

All music and lyrics written by and property of Jack Johnson
Transcribed by Jai Mitchell
[email protected]
http://members.optushome.com.au/jaimitchell

Once again, a correction after seeing him play it live..

GUITAR TAB
INTRO
--------7---5p3-2-3-0-------------------
--3p2p0---0-----------3-2-3--0h2h3/5-7--
----------------------------------------
----------------------------------------
----------------------------------------
----------------------------------------

VERSE
|--------------------------|
|----2-2---2-0---3-3---3-0-|
|----3-3---3-0---4-4---4-0-|
|--------------------4-----|
|--------4-----2-----------|
|--2-----------------------|

PRE CHORUS
--------------------------
----2-2---2-0---3-0---5-0-
----3-3---3-3---4-4---6-6-
--------------------------
--------4-----------------
--2-----------3-----5-----

CHORUS
|---------------------------|
|----7-0---5-0---3-0---2-0--|
|.---7-0---6-0---4-0---3-0-.|
|.-------------------------.|
|---------------------------|
|--7-----5-----3-----2------|

CHORUS END

---------------------------
----3-3---3-3---3-3---3-0--
----4-4---4-4---4-4---4-0--
--------4-----------4------
--2-----------2------------
---------------------------

SONG ORDER

VERSE [x4]
PRE-CHORUS
CHORUS [x2]
CHORUS END

VERSE [x3]
PRE-CHORUS
CHORUS [x2]

VERSE [x6]-starting on the Bm the first time
PRE-CHORUS
CHORUS [x2]
end on first note of CHORUS END





Ваше мнение



Капча