------------------------------------------------------------------------
Rodeo Clowns w/Intro - Jack Johnson
------------------------------------------------------------------------
Tab by: ShawnArtman
E-Mail: [email protected]
Tuning: Standard Let ring....
e|---4--5--7--5--4h5p4--4---PAUSE---5--4--0-------4--PAUSE---|
B|---5------------------5-----------5-------------5----------|
G|---6------------------5-----------4--------4----3----------|
D|-----------------------------------------------------------|
A|-----------------------------------------------------------|
E|-----------------------------------------------------------|
e|---4--2--0--------2--0-------------------------------------|
B|---5--------------------4--4/5--5--------------------------|
G|---2--------2-----2-------------6--------------------------|
D|--------------------------------6--------------------------|
A|-----------------------------------------------------------|
E|-----------------------------------------------------------|
Strummed Chords Pattern:
e|---4-----2-----5-----4--------------v--^v^v--^^^v^v--------|
B|---5-----2-----5-----4------------------xxx-----xxx--------|
G|---6-----3-----6-----5-------------------------------------|
D|---6-----4-----7-----6-------------------------------------|
A|---4-----4-----7-----6-------------------------------------|
E|---------2-----5-----4-------------------------------------|
Thats all you need, the rest is easy to figure out. The intro is what
I wanted to focus on since I was never able to find an accurate one or
even a single intro tab for that matter.
| / slide up
| h hammer-on
| p pull-off
| x Mute note
========================================================================





Ваше мнение



Капча