Inaudible Melodies
Jack Johnson
Tabbed by Brad Grillo
I know I dont have The beginning, but the rest sounds pretty sweet.
F#(1-2) B7(2-2) C#7(2-4) A#(2-1) G#7(1-4) G7(1-3)---|
e-----2--------2--------4---------1--------4---------3------|
B-----2--------4--------6---------2--------4---------3------|
G-----3--------2--------4---------3--------5---------4------|
D-----4--------4--------6---------3--------4---------3------|
A-----4--------2--------4---------1--------6---------5------|
E-----2--------X--------X---------x--------4---------3------|
Here it is
1-2
Brushfire fairytales
2-2
Itsy bitsy diamond rings
1-2
Big fat hurricanes
2-2
Yellow belly given names
2-4
Well shortcuts can slow you down
2-2
And in the end we're bound
1-2
To rebound off of we
1-2
Well dust off your thinking caps
2-2
Solar powered plastic plants
1-2
Pretty pictures of things we ate
2-2
We are only what we hate
2-4
But in the long run we have found
2-2
Silent films are full of sound
1-2
Inaudibly free
1-2 2-1
Slow down everyone you're moving too fast
2-4 1-4
Frames can't catch you when you're moving like that
1-2
Inaudible melodies
2-1
Some narration or strategies
2-2
Unobtrusive tones
1-4
Help to notice nothing but the zone
1-2
Of visual relevancy
2-1
Framelines tell me what to see
2-2
Choppin' like an axe well
1-4
Maybe eyes instead
Should just relax
1-2 2-1
Slow down everyone you're moving too fast
2-2 1-4
Frames can't catch you when you're moving like that
Solo.... If you please.
F# A# B7 G#
e--11-14-11--11---11--11-14-11--------11--11-14-11--------11-11-11-11-14-|
B--11------14-----11----------14-11---11----------14-12---11-------------|
G------------------------------------------------------------------------|
D------------------------------------------------------------------------|
A------------------------------------------------------------------------|
E------------------------------------------------------------------------|
1-2
Well Plato's cave is full of freaks
2-1
Demanding refunds for the things they've seen
2-2
I wish they could believe
1-4 1-3
in all the things that never made the screen and just
1-2 2-1
Slow down everyone you're moving too fast
2-4 1-4
Frames can't catch you when you're moving like that
1-2 2-1
Slow down everyone you're moving too fast
2-4 1-4
Frames can't catch you when you're moving like that
For questions, email [email protected]





Ваше мнение



Капча