Tabbed by: Jake Cole
Email: [email protected]
Tuning: EADGBe
(D)
And by the way
You know that hope will make you strange
Make you blink, make you blink
Make you sink
(G)
It will make you afraid of change
Enough to blame the box with the view of the world
(D)
And the walls that fill the frame
I turn it up
But then I turn it off
Because I can't stand
When they start to talk about
(G)
The hurting and killing
Whose shoes are we feeling
The damage and ruin
And the things that we're doing
Gotta
(D)
We gotta stop
We gotta turn it all off
We gotta rewind
Start it up again Because we
e|-----------------------------------------------------3-------------------|
B|----2---2-2-2-------4-2-2------5-2-2---------4-2-2---3-------------------|
G|----2---2-2-2-------4-2-2------5-2-2---------4-2-2---0-------------------|
D|--2-2---2-2-2-----4-4-2-2----5-5-2-2-------4-4-2-2---0-------------------|
A|--0---------------0----------0-------------0---------2-------------------|
E|-----------------------------------------------------3-------------------|
fell across the fall line, Ain't nothing sacred anymore
(G) (D) (G) (D) (G)
Nah nah nah nah nah nah nah nah
(D)
Somebody saw him jump
Yeah, but nobody saw him slip
I guess he lost a lot a hope
And then he lost a grip
(G)
And now he's lying in the freeway
In the middle of this mess
Guess we lost another one, just like the other one
(D)
Optimistic, hypocrite that didn't have the nerve to quit
The things that kept him wanted more
'Til he finally reached the core and
e|-----------------------------------------------------3-------------------|
B|----2---2-2-2-------4-2-2------5-2-2---------4-2-2---3-------------------|
G|----2---2-2-2-------4-2-2------5-2-2---------4-2-2---0-------------------|
D|--2-2---2-2-2-----4-4-2-2----5-5-2-2-------4-4-2-2---0-------------------|
A|--0---------------0----------0-------------0---------2-------------------|
E|-----------------------------------------------------3-------------------|
fell across the fall line, Ain't nothing sacred anymore
(G) (D)
Nah nah nah nah nah nah nah nah





Ваше мнение



Капча