Iron Maiden
Wrathchild
Tabbed by Dan ([email protected])
A bloody awesome song from the best band on the face of the earth.
Theres more variations in the interlude which i haven't bothered to
tab because im a lazy sod, but the rest of it is reasonably accurate
(i hope). Comments/corrections/flames welcome!
[Verse] ('Born into a scene...')
G|------------------------------------------------
D|------------------------------------------------
A|-5h7-7-7---5h7-7-7---5h7-7-7---5-4-5-7-5-4-0----
E|---------0---------0---------0------------------
[Bridge] ('Now i spend my time...')
G|----------------------------------------------------------------
D|----------------------------------------------------------------
A|-3-3-3-3-2-2-2-2-5h7-7-7-5h7-7-7-3-3-3-3-2-2-2-2-5h7-7-7-5h7-7-7
E|----------------------------------------------------------------
G|------------------------------------------------
D|------------------------------------------------
A|-3-3-3-3-2-2-2-2-----------------3-3-3-3-2-2-2-2
E|-----------------3-3-3-3-2-2-2-2----------------
[Chorus]('cos i'm a wrathchild...')
G|------------------------------------------------------------------
D|-2-2---2-0---0---0---2-2---2-0---0---0---2-2---2-0---0---0--------
A|-----------2---2---------------2---2---------------2---2----------
E|------------------------------------------------------------------
G|------------------------------------------------------------------
D|------------------------------------------------------------------
A|-333-0-3-0-33-0-33-555---5---55---55---7-5---5---5---5------------
E|-----------------------7---7----7----------7---7---7---7-5-3-0----
[Interlude]
G|---------------------------------7-9-9-9-7------
D|-----------------------------5-7-----------9-7-5
A|-5h7-7-7-5h7-7-7-5h7-7-7-5-7--------------------
E|------------------------------------------------
G|---------------------------------7-9-9-9-7------
D|-----------------------------5-7-----------9-7-5
A|-5h7-7-7-5h7-7-7-5h7-7-7-5-7--------------------
E|------------------------------------------------
G|---------------------------------7-9-9-9-7------
D|-----------------------------5-7-----------9-7-5
A|-5h7-7-7-5h7-7-7-5h7-7-7-5-7--------------------
E|------------------------------------------------
G|------------------------------------------------
D|------------------------------------------------
A|-5h7-7-7-5h7-7-7-5h7-7-7-5-4-5-7-5-4-0----------
E|------------------------------------------------
G|------------------------------------------------------------------
D|------------------------------------------------------------------
A|-333-0-3-0-33-0-33-555---5---55---55---7-5---5---5---5------------
E|-----------------------7---7----7----------7---7---7---7-5-3-0----
G|------------------------------------------------------------------------------------------------
D|------0-----0------------------0-----0----------------0-----0------------------0-----0----------
A|0-2-2---2-2---2-0--------0-2-2---2-2---2-0------0-2-2---2-2---2-0--------0-2-2---2-2---2-0------
E|------------------3-3-0--------------------3-3-0------------------3-3-0--------------------3-3-0
G|------------------------------------------------------------------------------------------------
D|------2-----2-----------------2-----2-----------------3-----3-----------------3-----3-----------
A|0-4-4---4-4---4-2-0-----0-4-4---4-4---4-2-0-----0-5-5---5-5---5-2-0-----0-5-5---5-5---5-2-0-----
E|--------------------3-0---------------------3-0---------------------3-0---------------------3-0-
G|------------------------------------------------
D|------------------------------------------------
A|-555---5---55---55---7-5---5---5---5------------
E|-----7---7----7----------7---7---7---7-5-3-0----
Structure:
==================
Verse x4
Bridge x1
Verse x2
Chorus x1
Interlude x1
Verse x4
Bridge x1
Verse x2
Chorus x1




Ваше мнение



Капча