Guitars:2

Intro: [------------------------------------------] Guitar 1
[------------------------------------------]
[--99-99999--99-99999--99-99999--55--1212--]
[--99-99999--99-99999--99-99999--55--1212--]
[--77-77777--77-77777--77-77777--33--1010--]
[------------------------------------------]

Intro 2: [------------------------------------------] Guitar 1
[------------------------------------------]
[--99-99999--99-99999--99-99999--55--1212--]
[--99-99999--99-99999--99-99999--55--1212--]
[--77-77777--77-77777--77-77777--33--1010--]
[------------------------------------------]

[------------------------------------------] Guitar 2
[------------------------------------------]
[--99--------99--------99--------55--1212--]
[--99--------99--------99--------55--1212--]
[--77--------77--------77--------33--1010--]
[------------------------------------------]

Intro 3: [------------------------------------------] Guitar 1
[------------------------------------------]
[--99-99999--99-99999--99-99999--55--1212--] x2
[--99-99999--99-99999--99-99999--55--1212--]
[--77-77777--77-77777--77-77777--33--1010--]
[------------------------------------------]

[------------------------------------------] Guitar 2
[------------------------------------------]
[--99-99999--99-99999--99-99999--55--1212--] x2
[--99-99999--99-99999--99-99999--55--1212--]
[--77-77777--77-77777--77-77777--33--1010--]
[------------------------------------------]

Verse: [------------------------------------------] Guitar 1
[------------------------------------------]
[--99-99999--99-99999--99-99999--55--1212--] x4
[--99-99999--99-99999--99-99999--55--1212--]
[--77-77777--77-77777--77-77777--33--1010--]
[------------------------------------------]

[------------------------------------------] Guitar 2
[------------------------------------------]
[--99-99999--99-99999--99-99999--55--1212--] x4
[--99-99999--99-99999--99-99999--55--1212--]
[--77-77777--77-77777--77-77777--33--1010--]
[------------------------------------------]

Pre Chorus: [---------------------------------------] Guitar 1
[---------------------------------------]
[--7----5--121212-10-9--7----5------55--] x2
[--7----5--121212-10-9--7----5--55--55--]
[--5----3--101010--8-7--5----3--55--33--]
[-------------------------------33------]

[---------------------------------------] Guitar 2
[---------------------------------------]
[--7----5--121212-10-9--7----5------55--] x2
[--7----5--121212-10-9--7----5--55--55--]
[--5----3--101010--8-7--5----3--55--33--]
[-------------------------------33------]

Chorus: [----------------------------] Guitar 1
[----------------------------]
[--9999--7777--5555------55--] x4
[--9999--7777--5555--55--55--]
[--7777--5555--3333--55--33--]
[--------------------33------]

[---------------------] Guitar 2
[---------------------]
[--16-14-16-14-16-----] x3
[-----------------17--]
[---------------------]
[---------------------]

[---------------------]
[---------------------]
[--16-14-16-17-16-----]
[-----------------17--]
[---------------------]
[---------------------]

Verse:

Pre Chorus:

Chorus:

Solo 1: [--------------------------------------------]
[--------------------------------------------]
[-----------------------------------------7--]
[---------------9-7-7-9-7-9-10-9-10-10-9-7---]
[--7--7-9-10-7-------------------------------]
[--------------------------------------------]

[---------------12-14-12-14-12-15-14-15-14--]
[-------------------------------------------]
[-------------------------------------------]
[-------------------------------------------]
[--7--7-9-10-7------------------------------]
[-------------------------------------------]

[--17-15-17-15-19-17-15-14-15--] Guitar 1
[------------------------------]
[------------------------------] x2
[------------------------------]
[------------------------------]
[------------------------------]

Solo 2: [---------------10---7---7---7--]
[--12-12-12-10-----8---8---8----]
[-------------------------------]
[-------------------------------]
[-------------------------------]
[-------------------------------]

[------7---------------------]
[----8---7-8-7-8-7--5-4-5-4--]
[--9-------------------------]
[----------------------------]
[----------------------------]
[----------------------------]

[--------------------------------------]
[--------------------------------------]
[--7-5-7-5-----------------------------]
[-----------7-5-7-5--------------------]
[--------------------7--7-9-7-9-7-9-7--]
[--------------------------------------]

[--------------------------------]
[--------------------------------]
[--------------------------------]
[--7-9-7-9-7-9-7-----------------]
[-----------------7-9-7-9-7-9-7--]
[--------------------------------]

[--12-14-15-17-19-17-15-14-12-14-15-17--]
[---------------------------------------]
[---------------------------------------]
[---------------------------------------]
[---------------------------------------]
[---------------------------------------]

[--15-14-12-13--] Guitar 1
[---------------]
[---------------]
[---------------]
[---------------]
[---------------]

[----------------------------] Guitar 2
[----------------------------]
[--9999--7777--5555------55--] x4
[--9999--7777--5555--55--55--]
[--7777--5555--3333--55--33--]
[--------------------33------]

Solo 1:

Chorus:

Outro: [--------------------------------------] Guitar 1
[--------------------------------------]
[--------------------------------------] x3
[--------------------------------------]
[--5-4-5-7--5-4-5-7--5-4-5-7--5-4-2-0--]
[--------------------------------------]

[--------------------------------------] Guitar 2
[--------------------------------------]
[--------------------------------------] x3
[--------------------------------------]
[--5-4-5-7--5-4-5-7--5-4-5-7--5-4-2-0--]
[--------------------------------------]

Ending [------------------------------------] Guitar 1
[------------------------------------]
[------------------------------------]
[------------------------------------]
[--5-4-5-7--5-4-5-7--5-4-5-7--5-4-0--]
[------------------------------------]

[------------------------------------] Guitar 2
[------------------------------------]
[------------------------------------]
[------------------------------------]
[--5-4-5-7--5-4-5-7--5-4-5-7--5-4-0--]
[------------------------------------]




Ваше мнение



Капча