Riff 1:
E-------------------|
B-------------------|
G---------------2---|
D-------4-----0-----|
A-----2-------------|
E---0-----3---------|

Riff 2:(First guitar)
Rape of the mind is a social disorder
E-------------------------------|
B-------------------------------|
G-------------------------------|
D--5-5-5-5---5---5-5-5-5-5---7--|
A--3-3-3-3---3---3-3-3-3-3---5--|
E-------------------------------|

The cynics, the apathy oneupmanship order
E-------------------------------|
B-------------------------------|
G-------------------------------|
D--5-5-5-5---5---5-5-5-5-5---7--|
A--3-3-3-3---3---3-3-3-3-3---5--|
E-------------------------------|

Riff 2:(Second guitar)
Rape of the mind is a social disorder
E------------------------------------------|
B------------------------------------------|
G------------------------------------------|
D------------------------------------------|
A--13-12-10-13---12---10-13-12-10-13---12--|
E------------------------------------------|


Ваше мнение



Капча