hi my name is james and this is my tab of adrian smith and dave murray's solos to the trooper.
~ vibrato
b bend
h hammeron
r pull off

guitar 1 - adrian smith.
E||--12--------------|----------------------15~---|
B||--15b-------15b---|--15r---12--15~---12--------|
G||------------------|----------------------------|
D||------------------|----------------------------|
A||------------------|----------------------------|
E||------------------|----------------------------|

--15--12---------------------------------|
-----------------------------------------|
----------15h14h12-----------------------|
-------------------14~---14h12-----------|
-------------------------------14~-------|
-----------------------------------------|

--------------------------------------|
--------12h15-----12-15-----12-15-----|
--14b---------14b-------14b-------14b-|
--------------------------------------|
--------------------------------------|
--------------------------------------|

------------------------------------------|
--12h15-----12-15-----12-15-----12-15-----|
--------14b-------14b-------14b-------14b-|
------------------------------------------|
------------------------------------------|
------------------------------------------|

----------------------------------------|
--12h15-----12--------------------------|
--------14b----15h14h12-14----12~-------|
---------------------------14-----------|
----------------------------------------|
----------------------------------------|

-----15h19h15-17h15----15-19h15-17h15----15-19h15-|
--17----------------17----------------17----------|
--------------------------------------------------|
--------------------------------------------------|
--------------------------------------------------|
--------------------------------------------------|

--17h15----15-19h15-17h15----15-19h15-17h15----15-|
--------17----------------17----------------17----|
--------------------------------------------------|
--------------------------------------------------|
--------------------------------------------------|
--------------------------------------------------|

--19h15-17h15----15-19h15-17h15~-|--20b-20b-20b-20b-20b-20r-------|
--------------17-----------------|--------------------------------|
---------------------------------|--------------------------------|
---------------------------------|--------------------------------|
---------------------------------|--------------------------------|
---------------------------------|--------------------------------|

--19h20-17h19-15h17-------------|------------12------12----------------|
--------------------19h20-17~---|--------12------15~----15h12----------|
--------------------------------|--14b------------------------14h12h14-|
--------------------------------|--------------------------------------|
--------------------------------|--------------------------------------|
--------------------------------|--------------------------------------|
guitar 2 dave
-----------|------5h8h5h8---------------------|---------------------------|
-----------|--5h8---------5h8h5h8-------------|---------------------------|
--12-------|-------------------------7~-7-6-5-|----6-5--------------------|
-----------|----------------------------------|--7-----7------------------|
-----14~---|----------------------------------|----------6--5--3----------|
-----------|----------------------------------|------------------5~-------|

----------------------------------------------|
------------10h12h10h12-----------10h12h10-12h|
--9h11h9h11-------------9h11h9h11-------------|
----------------------------------------------|
----------------------------------------------|
----------------------------------------------|

------------------------------------|----------------------------------------|
--13h12-15-15b---15b---12-15~-------|--17------17-17h20h17h20h17-17----------|
------------------------------------|------19--------------------------19b---|
------------------------------------|----------------------------------------|
------------------------------------|----------------------------------------|
------------------------------------|----------------------------------------|

------------------------------------------|------------------------|
--17----------------15-17h15-15-----------|------------------------|
-----19h17h16-17-16-------------17b-------|--17--------17b---17----|
------------------------------------------|------------------------|
------------------------------------------|------------------------|
------------------------------------------|------------------------|

--------------------|--20~---17----------------|------20b---20--19--17--------|
------------20b-17--|------------20b-------20h-|--17--------------------20r---|
--19b---17----------|--------------------------|------------------------------|
--------------------|--------------------------|------------------------------|
--------------------|--------------------------|------------------------------|
--------------------|--------------------------|------------------------------|

--------------------||
--------------------||
--19--17------------||
----------17~-------||
--------------------||
--------------------||




Ваше мнение



Капча