Iron Maiden - The Thin Line Between Love And Hate
Tabbed By: Dan
EMail: [email protected]
As far as tabs go, this is fairly inprecise, The parts are all there,
and i've given some indication as to when you need to play them, but you
should be able to work out the bits i havent done yourself.
Comments and corrections welcome!
[Intro Part 1]
G|---------------------------------------------------------------------
D|---------------------------------------------------------------------
A|-----4-4-0-0-2-2-----4-4-0-0---------2-2-----0-0-----2-2-------------
E|-2-2-------------2-2---------4-4-0-0-----3-3-----0-0-----3-3-0-0-----
G|---------------------------------------------------------------------
D|-----4-4-0-0-2-2-----4-4-0-0-----------------------------------------
A|-2-2-------------2-2---------4-4-----5-5-2-2-0-0-----5-5-2-2---------
E|---------------------------------3-3-------------3-3---------3-3-----
[Intro Part 2]
G|---------------------------------------------------------------------
D|---------------------------------------------------------------------
A|---------------------------0h2-2-2-2-0-2-2-2-2-3-2-0-----------------
E|-0h2-2-2-2-0-2-2-2-2-3-2-0-------------------------------------------
[Verse] ('When a person turns to wrong...')
G|------------------------------------------------------------------------------------
D|------------------------------------------------------------------------------------
A|-------------2-2-2-2-2-2-------------2-2-2-2-2-2-------------2-2-2-2-2-2-5-5-0-0----
E|-2-2-2-2-2-2-------------2-2-2-2-2-2-------------2-2-2-2-2-2---------------------0-0
[Chorus] ('There's a thin line...')
G|-------------------------------------------------
D|-------------------------------------------------
A|-----------5-5-5-5-5-5-5-0-0-0-0-0---------------
E|-2-2-2-2-2-------------------------0-0-0-0-0-0-0-
[Instrumental] {Repeat each part of this as required}
(A)
G|-------------------------------------------------
D|-----4-----2-----4-----2-----4-----2-----4-----2-
A|---4-----2-----4-----2-----4-----2-----4-----2--- etc...
E|-2-----0-----2-----0-----2-----0-----2-----0-----
(B)
G|------------------------------------------------------------------------------------
D|------------------------------------------------------------------------------------
A|------------------------------------------------------------------------------------
E|-2-2-2-2-2-2-2-5-5-5-5-0-0-0-0-0-0-0-0-2-2-2-2-2-2-2-5-5-5-5-0-0-0-0-0-0-0-0--------
(C)
G|------------------------------------------------------------------------------------
D|------------------------------------------------------------------------------------
A|---1-1-1-0-0-0-0-----------0-----3-3-3-1-1-1-1-0-0-0-0-1-0--------------------------
E|-3---------------3-3-3-3-3---3-1---------------------------1-3----------------------(Rough) Structure:
==================
Intro Part 1 x2
Intro Part 2 x2
Verse x2
Chorus x4
Verse x2
Chorus x4
Intro Part 2 x2
Verse x2
Chorus x4
Intro Part 2 x2
Chorus x4
Intro Part 1 x6
Instumental




Ваше мнение



Капча