Iron Maiden
The Nomad
Tabbed by Dan ([email protected])
[Intro Part 1]
G|----------------------------------------------------------------
D|----------------------------------------------------------------
A|-7-8-7---7-7---7-8-7---5-5---7-8-7---7-7---7-8-7---3-0----------
E|----------------------------------------------------------------
[Intro Part 2]
G|----------------------------------------------------------------
D|----------------------------------------------------------------
A|-2-2-2-2-2-2-2-2-2-2-2-2-2-2-2-2-2-2-2-2-2-2-2-2-2-2-2-2-2-2-2-2
E|----------------------------------------------------------------
[Intro Part 3] ('Ah... ah ah ah...')
G|----------------------------------------------------------------
D|----------------------------------------------------------------
A|-2-2-2-2-2-2-2-2-----------------2-2-2-2-2-2-2-2----------------
E|-----------------2-2-2-3-3-3-2-2-----------------2-2-2-3-3-3-2-2
[Verse] ('Like a mirage...')
G|----------------------------------------------------------------
D|----------------------------------------------------------------
A|-2-2-2-2-2-2-2-2-----------------2-2-2-2-2-2-2-2---------5-5-5-5
E|-----------------2-2-2-2-5-5-5-5-----------------2-2-2-2--------
[Chorus] ('Nomad, you're the rider...')
G|----------------------------------------------------------------
D|----------------------------------------------------------------
A|-7-777-777-77-2-3-5-555-555-555-7-777-777-77-2---0-000-000-000-0
E|-----------------------------------------------3----------------
[Interlude]
(A)
G|-----9---9---9-------9---9---9-------5---5---5-------5---5---5--
D|---9---9---9---9---9---9---9---9---5---5---5---5---5---5---5---5
A|-7---------------7---------------3---------------3--------------
E|----------------------------------------------------------------
G|-----2---2---2-------2---2---2-------9---9---9-------9---9---9--
D|---2---2---2---2---2---2---2---2---9---9---9---9---9---9---9---9
A|-0---------------0---------------7---------------7--------------
E|----------------------------------------------------------------
(B)
G|-------------------------------------------------------------------------
D|-------------------------------------------------------------------------
A|-77777777-77777777-33333333-33333333-00000000-00000000-77777777-77777777-
E|-------------------------------------------------------------------------
Structure
==================
Intro Part 1 x4
Intro Part 2 x1
Intro Part 1 x1
Intro Part 3 x1
Intro Part 1 x2
Verse x2
Intro Part 1 x2
Verse x2
Intro Part 1 x2
Verse x2
Chorus x2
Intro Part 1 x2
Intro Part 3 x2
Intro Part 1 x4
Verse x2
Chorus x2
Interlude (A) x4
Interlude (B) x8
Verse x2
Chorus x2
Intro Part 1 x2




Ваше мнение



Капча