The Loneliness Of The Long Distance Runner(Intro)

Hi,I'm Kirill(Raven). This is my first tablature.

sp-short pause
~-long

guitar 1:
E-------------------------------------------------------------------------------
B-------------------------------------------------------------------------------
G-5-sp-5--7--8--10--8--7--8--3-sp-3--5--7--8--7--5--3--5------------------------ x2
D-------------------------------------------------------------------------------
A-------------------------------------------------------------------------------
E-------------------------------------------------------------------------------
and then
E-------------------------------------------------------------------------------
B-5-sp-5--7--8--10--8--7--8--3-sp-3--5--7--8--7--5--3--5------------------------
G------------------------------------------------------------------------------- x2
D-------------------------------------------------------------------------------
A-------------------------------------------------------------------------------
E-------------------------------------------------------------------------------

guitar 1:
E-------------------------------------------------------------------------------
B-------------------------------------------------------------------------------
G-5-sp-5--7--8--10--8--7--8--3-sp-3--5--7--8--7--5--3--5------------------------ x2
D-------------------------------------------------------------------------------
A-------------------------------------------------------------------------------
E-------------------------------------------------------------------------------
at the same time guitar 2:
E-------------------------------------------------------------------------------
B-------------------------------------------------------------------------------
G-----7~---3~---5~---7-5-------------------------------------------------------- x2
D-----7~---3~---5~---7-5--------------------------------------------------------
A-----5~---1~---3~---5-3--------------------------------------------------------
E-------------------------------------------------------------------------------

guitar 1:
E-------------------------------------------------------------------------------
B-5-sp-5--7--8--10--8--7--8--3-sp-3--5--7--8--7--5--3--5------------------------
G------------------------------------------------------------------------------- x2
D-------------------------------------------------------------------------------
A-------------------------------------------------------------------------------
E-------------------------------------------------------------------------------

guitar 2 (at same time):
E-------------------------------------------------------------------------------
B-------------------------------------------------------------------------------
G-----9~---5~---7~---9-7-------------------------------------------------------- x2
D-----9~---5~---7~---9-7--------------------------------------------------------
A-----7~---3~---5~---7-5--------------------------------------------------------
E-------------------------------------------------------------------------------




Ваше мнение



Капча