run to the hills by iron maiden
SOLO tabbed by Alistair Schorah
+++++++++++++++++++++++++++++++

2:12 2:16
e|-----------------------------------------------------------------------------------------|
h|--s17--15h17r15h17-12h15r12h15-12--------------------------------------------------------|
g|----------------------------------12h14r12h14r12-----------------------------------------|
D|-------------------------------------------------14--------------------------------------|
A|-----------------------------------------------------------------------------------------|
E|-----------------------------------------------------------------------------------------|

2:17 2:22
e|-------------------------------------------------15b-------------------------------------|
h|-------------------------12h15r12h15-15h17r15h17-----------------------------------------|
g|-------------12h14r12h14-----------------------------------------------------------------|
D|-12h14r12h14-----------------------------------------------------------------------------|
A|-----------------------------------------------------------------------------------------|
E|-----------------------------------------------------------------------------------------|

2:23 2:25 2:28 2:31
e|-12h15r12h15-----------------------------------10------17--------------------------19b---|
h|------------12h15r12h15----------------------12--12------15-17---------17h20r17h20-------|
g|-----------------------12h14r12h14-----------------12----------14-16---------------------|
D|----------------------------------12h14r12h14--------------------------------------------|
A|-----------------------------------------------------------------------------------------|
E|-----------------------------------------------------------------------------------------|



Notation Legend:
h=hammer
r=release (pull off)
s=slide
b=bend
bs=bend and slide (duh!)
3:29= 3 minutes and 29 seconds into song (duh!)

It is an amazingly hard solo and all Iron Maiden ones r! Good luck wiv it.
if u haf any problems den email me @ [email protected]!

GOOD LUCK!




Ваше мнение



Капча