t. See http://www.olga.net/faq/ for more information. #
Date: Sat, 1 Apr 2000 11:40:34 -0500
From: pithan
Subject: i/iron_maiden/prowler.tab
band: IRON MAIDEN'93
song: "Prowler live"
from: 'A Real Dead One' (live album)
music by Steve Harris
lyric by Steve Harris
tabb: Marck Pithan ([email protected])
Well, posted "Prowler" 'cos I saw a tab for this song on the web definitily wrong...
I believe this is a correct version... If if think there's a mistakes, e-mail me...
Marck Pithan.
INTRO:
Janick Gers:
|---------------------------------|
|---------------------------------|
|---9-9-9---9-9-9---9-9-9---9-9-9-|
|---9-9-9---9-9-9---9-9-9---9-9-9-|
|-x-7-7-7-x-7-7-7-x-7-7-7-x-7-7-7-|
|---------------------------------|
Repeat it as long it takes...
Listen to the record (live version or studio record) to get the rhythm.
Dave Murray:
repeat 3x
|--------------------|----------------------|
|-5--8-7-8/11\8-7-8--|-3-5--3h5p3h5p3h5p3h5-|
|--------------------|----------------------|
|--------------------|----------------------|
|--------------------|----------------------|
|--------------------|----------------------|

VERSES:
Janick Gers:
Em5 D5 fill:
|---------------------------------|---------------------------------|--------|
|---------------------------------|---------------------------------|--------|
|---9-9-9---9-9-9---9-9-9---9-9-9-|---7-7-7---7-7-7---7-7-7---7-7-7-|-9-7-7--|
|---9-9-9---9-9-9---9-9-9---9-9-9-|---7-7-7---7-7-7---7-7-7---7-7-7-|----9-9-|
|-x-7-7-7-x-7-7-7-x-7-7-7-x-7-7-7-|-x-5-5-5-x-5-5-5-x-5-5-5-x-5-5-5-|--------|
|---------------------------------|---------------------------------|--------|
Play "Em5" twice, then play "D5" once, then play "Em5" once, then play fill.
Repeat it as long it takes for verses.
Dave Murray:
repeat 3x
|-----------------|------------------|
|-8-7-8/11\8-7-8--|-3-5--3h5p3h5p3h5-|
|-----------------|------------------|
|-----------------|------------------|
|-----------------|------------------|
|-----------------|------------------|
Repeat it as long it takes for verses.
Dave play the same "fill" played by Janick at the end of the riff.
PRE-CHORUS:
Both guitars:
|--------------------------------------------------------------------|
|----------------------------------------------------10/12\10-8-10-8-|
|-11--11---11---11---11---11---11----9----5--7----9------------------|
|-11--11---11---11---11---11---11----9----5--7----9------------------|
|-8----8----8----8----8----8----8----7----3--5----7------------------|
|--------------------------------------------------------------------|
play it twice.
CHORUS:
Janick Gers:
|------------------------|
|------------------------|
|-5------------7---------|
|-5------------7---------|
|-3------------5---------|
|------------------------|
Dave Murray:
|------------------------|
|-8-7-5-3-1----8-7-5-3-1-|
|------------------------|
|------------------------|
|------------------------|
|------------------------|
Then, play the same as played on Intro riff. Back again for chorus.
Then, Janick Gers holds on Em5 and Dave plays the second part of Verse's riff.
Em5:
|-9-------|G
|-9-------|D
|-7-------|A
INSTRUMENTAL BREAKS:
Dave Murray:
|--------------------|
|-12-11-9-7-7--9-11--|
|-12-11-9-7-7--9-11--|
|--------------------|
|--------------------|
|--------------------|
Repeat it for awile
Janick Gers:
|-------------------|
|-------------------|
|-9----7----9----9--|
|-9----5----7----9--|
|-7--------------7--|
|-------------------|
Here, as Janick Gers plays one by one chord above, the audicence screams.
Hear the album, you'll get it.
BEFORE SOLOS:
|----------------------------------------------------------|
|----------------------------------------------------------|
|-5h3-0-5h3-0-5h3-0-----7h5-0-7h5-0-7h5-0-----5h3-0-5h3-0--|
|----------------------------------------------------------|
|----------------------------------------------------------|
|----------------------------------------------------------|
After awile, one of them plays the same thing but on the B string.
RHYTHM FOR SOLOS AND FAST VERSES:
Janick Gers:
|------------------------------------------|
|------------------------------------------|
|-9-9-9----7-7-7---5-5-5----4-4-4----5--7--|
|-9-9-9----7-7-7---5-5-5----4-4-4----5--7--|
|-7-7-7----5-5-5---3-3-3----2-2-2----3--5--|
|------------------------------------------|
It's all...
Just play again some riffs above...




Ваше мнение



Капча