t. See http://www.olga.net/faq/ for more information. #
From: [email protected]
Date: Sun, 03 Oct 1999 20:52:53 +0300
Subject: i/iron_maiden/phantom_of_the_opera.tab
I found another mistake in my transcription. This is the correct file. Sorry...
Ok, here is the Phantom of the Opera solo. Maybe it's not 100% correct, but
it sounds pretty close to the original.
First Solo
Em Em
|---------------|----------------------------------------------------
|--15b(17)-(17)~|--15b(17)r(15)-13-12h13p12--------------12-13-15-17-
|---------------|----------------------------14-12-14~-14------------
|---------------|----------------------------------------------------
|---------------|----------------------------------------------------
|---------------|----------------------------------------------------
G
|-----------------------------------------------|
|--17b(20)-(20)-(20)-(20)r(17)-15-17------13-15-|
|------------------------------------16~--------|
|-----------------------------------------------|
|-----------------------------------------------|
|-----------------------------------------------|
Am c D
|----------------------------------------|
|--17p15p13------------------------------|
|-----------16p14-16p14-12h14p12p11------|
|-----------------------------------12~--|
|----------------------------------------|
|----------------------------------------|
Em
|-------------------------|
|--5-4-5-7-4h5p4h5p4------|
|--------------------5-4~-|
|-------------------------|
|-------------------------|
|-------------------------|
Em
|/12-11h12p11h12p11h12-14-11h12p11h12p11------------------------------
|---------------------------------------13p12h13p12h13p12h13p12h13p12-
|---------------------------------------------------------------------
|---------------------------------------------------------------------
|---------------------------------------------------------------------
|---------------------------------------------------------------------
G Am
|--10-12--|-\14-12-10-12\14---------------|---------------------
|---------|-----------------12~-----------|---------------------
|---------|-----------------------14b(16)-|-14b(16)r(14)-12-14--
|---------|-------------------------------|---------------------
|---------|-------------------------------|---------------------
|---------|-------------------------------|---------------------
c D Second Solo
|------------------------------------------|
|------------------------------------------|
|--12p11h12p11h12p11h12p11-9---------------|
|----------------------------12---/16-14-16|
|------------------------------------------|
|------------------------------------------|
Em Em
|----------------------------|-------------------------------------|
|--15b(17)--(17)--(17)~------|-------------------------------------|
|----------------------------|--14p12-14-14b(16)-12--------12-14-12|
|----------------------------|-----------------------14~-----------|
|----------------------------|-------------------------------------|
|----------------------------|-------------------------------------|
G Am C D
|--------15----------------------|----------------15---|
|--15b(17)~-(17)r15-12-15-15b(17)|~~-----------/15--15-|
|--------------------------------|---------------------|
|--------------------------------|---------------------|
|--------------------------------|---------------------|
|--------------------------------|---------------------|
Em Em
|----------------------------15---|--19-15-----17-15-----15------15--|
|--17b(20)~-(20)r(17)p15-17~---15-|--------17--------17-----17~----17|
|---------------------------------|----------------------------------|
|---------------------------------|----------------------------------|
|---------------------------------|----------------------------------|
|---------------------------------|----------------------------------|
G
|--19-15-----17-15-----19-15-----17-15-----19-15-----|
|--------17--------17--------17--------17--------17--|
|----------------------------------------------------|
|----------------------------------------------------|
|----------------------------------------------------|
|----------------------------------------------------|
Am C D
|--19p15p12-17p15p12-19p15p12-17p15p12-19p15p12-17p15p12-19p15p12\--|
|---T--------T--------T--------T--------T--------T--------T---------|
|-------------------------------------------------------------------|
|-------------------------------------------------------------------|
|-------------------------------------------------------------------|
|-------------------------------------------------------------------|
Transcribed October 3rd 1999 by Indiana




Ваше мнение



Капча