Author/Artist: Iron Maiden
Title: Out Of The Silent Planet
Album: Brave New World
Transcribed by: Muhamad
Email: [email protected]
Intro:
On First Time:
Guitar 1
E||--12-----10-----------------|---------10------------10----|---------------------10------|
B||-----------------12---------|--10---------12--------------|---12---------10---------12--|
G||------9--------------9--12--|------9----------9--9--------|-------9--12------9----------|
D||----------------------------|-----------------------------|-----------------------------|
A||----------------------------|-----------------------------|-----------------------------|
E||----------------------------|-----------------------------|-----------------------------|
||
||Guitar 2
E||----------------------------|-----------------------------|-----------------------------|
B||----------------------------|-----------------------------|-----------------------------|
G||----------------------------|-----------------------------|-----------------------------|
D||--2-------------------------|-----------------------------|-----------------------------|
A||--2-------------------------|-----------------------------|-----------------------------|
E||--0-------------------------|-----------------------------|-----------------------------|

Guitar 1
|--------10-----------------|---------10------------10----|----------------------10------|
|----------------12---------|--10---------12--------------|----12---------10---------12--|
|--9--9--------------9--12--|------9----------9--9--------|--------9--12------9----------|
|---------------------------|-----------------------------|------------------------------|
|---------------------------|-----------------------------|------------------------------|
|---------------------------|-----------------------------|------------------------------|
|
|Guitar 2
|---------------------------|-----------------------------|------------------------------|
|---------------------------|-----------------------------|------------------------------|
|---------------------------|-----------------------------|------------------------------|
|--14--12-------------------|-----------------------------|------------------------------|
|--12--10-------------------|-----------------------------|------------------------------|
|---------------------------|-----------------------------|------------------------------|
Then:
Guitar 1
|---------10-----------------|---------10------------10----|---------------------10------|
|-----------------12---------|--10---------12--------------|---12---------10---------12--|
|---9--9--------------9--12--|------9----------9--9--------|-------9--12------9----------|
|----------------------------|-----------------------------|-----------------------------|
|----------------------------|-----------------------------|-----------------------------|
|----------------------------|-----------------------------|-----------------------------|
|
|Guitar 2
|----------------------------|-----------------------------|-----------------------------|
|----------------------------|-----------------------------|-----------------------------|
|----------------------------|-----------------------------|-----------------------------|
|--2-------------------------|-----------------------------|-----------------------------|
|--2-------------------------|-----------------------------|-----------------------------|
|--0-------------------------|-----------------------------|-----------------------------|

Guitar 1
|--------10-----------------|---------10------------10----|----------------------10------|
|----------------12---------|--10---------12--------------|----12---------10---------12--|
|--9--9--------------9--12--|------9----------9--9--------|--------9--12------9----------|
|---------------------------|-----------------------------|------------------------------|
|---------------------------|-----------------------------|------------------------------|
|---------------------------|-----------------------------|------------------------------|
|
|Guitar 2
|---------------------------|-----------------------------|------------------------------|
|---------------------------|-----------------------------|------------------------------|
|---------------------------|-----------------------------|------------------------------|
|--14--12-------------------|-----------------------------|------------------------------|
|--12--10-------------------|-----------------------------|------------------------------|
|---------------------------|-----------------------------|------------------------------|
On Last Time:
Guitar 1
|---------10-----------------|---------10------------10----|---------------------10------|
|-----------------12---------|--10---------12--------------|---12---------10---------12--|
|---9--9--------------9--12--|------9----------9--9--------|-------9--12------9----------|
|----------------------------|-----------------------------|-----------------------------|
|----------------------------|-----------------------------|-----------------------------|
|----------------------------|-----------------------------|-----------------------------|
|
|Guitar 2
|----------------------------|-----------------------------|-----------------------------|
|----------------------------|-----------------------------|-----------------------------|
|----------------------------|-----------------------------|-----------------------------|
|--2-------------------------|-----------------------------|-----------------------------|
|--2-------------------------|-----------------------------|-----------------------------|
|--0-------------------------|-----------------------------|-----------------------------|

Guitar 1
|--------10-----------------|---------10------------10----|----------------------10------|
|----------------12---------|--10---------12--------------|----12---------10---------12--|
|--9--9--------------9--12--|------9----------9--9--------|--------9--12------9----------|
|---------------------------|-----------------------------|------------------------------|
|---------------------------|-----------------------------|------------------------------|
|---------------------------|-----------------------------|------------------------------|
|
|Guitar 2
|---------------------------|-----------------------------|------------------------------|
|---------------------------|-----------------------------|------------------------------|
|---------------------------|-----------------------------|------------------------------|
|--14--17-------------------|----------------14-----------|------------------------------|
|--12--15-------------------|----------------12-----------|------------------------------|
|---------------------------|-----------------------------|------------------------------|
Acoustic Intro Part:
First:
|-------------------------|------------------------|------------------------|
|-------------------------|------------------------|------------------------|
|---9----9--9----9--9--9--|--5----5--5----5--5--5--|------------------------|
|---9----9--9----9--9--9--|--5----5--5----5--5--5--|--5----5--5----5--5--5--|
|---7----7--7----7--7--7--|--3----3--3----3--3--3--|--5----5--5----5--5--5--|
|-------------------------|------------------------|--3----3--3----3--3--3--|

|-------------------------|
|-------------------------|
|--7----7--7----7--7--7---|
|--7----7--7----7--7--7---|
|--5----5--5----5--5--5---|
|-------------------------|
On 3rd Time
Guitar 1
|-------------------------|------------------------|------------------------|
|-------------------------|------------------------|------------------------|
|---9----9--9----9--9--9--|--5----5--5----5--5--5--|------------------------|
|---9----9--9----9--9--9--|--5----5--5----5--5--5--|--5----5--5----5--5--5--|
|---7----7--7----7--7--7--|--3----3--3----3--3--3--|--5----5--5----5--5--5--|
|-------------------------|------------------------|--3----3--3----3--3--3--|
|
|Guitar 2
|-------------------------|------------------------|------------------------|
|--10r---8--10----10r-----|--10--8-----------------|--10r---8--10----8------|
|-------------------------|------------------------|------------------------|
|-------------------------|------------------------|------------------------|
|-------------------------|------------------------|------------------------|
|-------------------------|------------------------|------------------------|

Guitar 1
|---------------------------|
|---------------------------|
|--7-----7--7-----7--7--7---|
|--7-----7--7-----7--7--7---|
|--5-----5--5-----5--5--5---|
|---------------------------|
|
|Guitar 2
|---------------------------|
|--10--8--10r---10p-8-------|
|----------------------9----|
|---------------------------|
|---------------------------|
|---------------------------|
On 4th Time Guitar 3 Enters Like Guitar 1

Intro Ending:
Play 4x
|------------------------------|
|------------------------------|
|---9-9-9-9-9----9-9-9-9-9-----|
|---9-9-9-9-9----9-9-9-9-9-----|
|---7-7-7-7-7----7-7-7-7-7-----|
|------------------------------|

Vers:
|-------------------|--7----------------|-------------------|-------------------|
|-------------------|--7----------------|-------------------|-------------------|
|--9----------------|--9----------------|--5----------------|--7----------------|
|--9----------------|--9----------------|--5----------------|--7----------------|
|--7----------------|--7----------------|--3----------------|--5----------------|
|--0----------------|-------------------|-------------------|-------------------|

Bridge:
Guitar 1
|-------------------|-------------------|-------------------|-------------------|
|-------------------|-------------------|-------------------|-------------------|
|--2----------------|--5----------------|-------------------|-------------------|
|--2----------------|--5----------------|--2----------------|--2----------------|
|--0----------------|--3----------------|--2----------------|--2----------------|
|-------------------|-------------------|--0----------------|--0----------------|
|
|Guitar 2
|-------------------|-------------------|-------------------|-------------------|
|-------------------|-------------------|-------------------|-------------------|
|-------------------|-------------------|-------------------|-------------------|
|-------------------|-------------------|-------------------|--7r---7p-5\---4---|
|-------------------|-------------------|-------------------|-------------------|
|-------------------|-------------------|-------------------|-------------------|
Guitar 1
|-------------------|-------------------|-------------------|-------------------|
|-------------------|-------------------|-------------------|-------------------|
|--2----------------|--5----------------|--7----------------|--7----------------|
|--2----------------|--5----------------|--7----------------|--7----------------|
|--0----------------|--3----------------|--5----------------|--5----------------|
|-------------------|-------------------|-------------------|-------------------|
|
|Guitar 2
|-------------------|-------------------|-------------------|-------------------|
|-------------------|-------------------|-------------------|-------------------|
|-------------------|-------------------|-------------------|--x\---------------|
|-------------------|-------------------|-------------------|--x\---------------|
|-------------------|-------------------|-------------------|--x\---------------|
|-------------------|-------------------|-------------------|-------------------|
Chorus:
|-------------------|-------------------|-------------------|-------------------|
|-------------------|-------------------|-------------------|-------------------|
|--9----------------|--5----------------|-------------------|--7----------------|
|--9----------------|--5----------------|--5----------------|--7----------------|
|--7----------------|--3----------------|--5----------------|--5----------------|
|-------------------|-------------------|--3----------------|-------------------|
Chorus After 2nd Vers:
|------------------------------|------------------------------|
|------------------------------|------------------------------|
|--9--9-9-9--9-9-9--9-9-9--9-9-|--5--5-5-5--5-5-5--5-5-5--5-5-|
|--9--9-9-9--9-9-9--9-9-9--9-9-|--5--5-5-5--5-5-5--5-5-5--5-5-|
|--7--7-7-7--7-7-7--7-7-7--7-7-|--3--3-3-3--3-3-3--3-3-3--3-3-|
|------------------------------|------------------------------|

|------------------------------|------------------------------|
|------------------------------|------------------------------|
|------------------------------|--7--7-7-7--7-7-7--7-7-7--7-7-|
|--5--5-5-5--5-5-5--5-5-5--5-5-|--7--7-7-7--7-7-7--7-7-7--7-7-|
|--5--5-5-5--5-5-5--5-5-5--5-5-|--5--5-5-5--5-5-5--5-5-5--5-5-|
|--3--3-3-3--3-3-3--3-3-3--3-3-|------------------------------|
On 3rd Time:
Guitar 1
|------------------------------|------------------------------|
|------------------------------|------------------------------|
|--9--9-9-9--9-9-9--9-9-9--9-9-|--5--5-5-5--5-5-5--5-5-5--5-5-|
|--9--9-9-9--9-9-9--9-9-9--9-9-|--5--5-5-5--5-5-5--5-5-5--5-5-|
|--7--7-7-7--7-7-7--7-7-7--7-7-|--3--3-3-3--3-3-3--3-3-3--3-3-|
|------------------------------|------------------------------|
|
|Guitar 2
|------------------------------|------------------------------|
|------------------------------|------------------------------|
|------------------------------|------------------------------|
|------------------------------|------------------------------|
|------------------------------|--3---------------------------|
|--0-------------2------3------|------------------------------|
Guitar 1
|------------------------------|------------------------------|
|------------------------------|------------------------------|
|------------------------------|--7--7-7-7--7-7-7--7-7-7--7-7-|
|--5--5-5-5--5-5-5--5-5-5--5-5-|--7--7-7-7--7-7-7--7-7-7--7-7-|
|--5--5-5-5--5-5-5--5-5-5--5-5-|--5--5-5-5--5-5-5--5-5-5--5-5-|
|--3--3-3-3--3-3-3--3-3-3--3-3-|------------------------------|
|
|Guitar 2
|------------------------------|------------------------------|
|------------------------------|------------------------------|
|------------------------------|------------------------------|
|------------------------------|------------------------------|
|--5-------------3------2------|------------------------------|
|------------------------------|--5-------------3-----2-------|
On 5th Time:
Guitar 1
|------------------------------|------------------------------|
|------------------------------|------------------------------|
|--9--9-9-9--9-9-9--9-9-9--9-9-|--5--5-5-5--5-5-5--5-5-5--5-5-|
|--9--9-9-9--9-9-9--9-9-9--9-9-|--5--5-5-5--5-5-5--5-5-5--5-5-|
|--7--7-7-7--7-7-7--7-7-7--7-7-|--3--3-3-3--3-3-3--3-3-3--3-3-|
|------------------------------|------------------------------|
|
|Guitar 2
|------------------------------|------------------------------|
|--10r---8--10----10r----------|--10--8-----------------------|
|------------------------------|------------------------------|
|------------------------------|------------------------------|
|------------------------------|------------------------------|
|------------------------------|------------------------------|
|
|Guitar 3
|------------------------------|------------------------------|
|------------------------------|------------------------------|
|------------------------------|------------------------------|
|--7r---5--7----7r-------------|--7--5------------------------|
|------------------------------|------------------------------|
|------------------------------|------------------------------|

Guitar 1
|------------------------------|------------------------------|
|------------------------------|------------------------------|
|------------------------------|--7--7-7-7--7-7-7--7-7-7--7-7-|
|--5--5-5-5--5-5-5--5-5-5--5-5-|--7--7-7-7--7-7-7--7-7-7--7-7-|
|--5--5-5-5--5-5-5--5-5-5--5-5-|--5--5-5-5--5-5-5--5-5-5--5-5-|
|--3--3-3-3--3-3-3--3-3-3--3-3-|------------------------------|
|
|Guitar 2
|------------------------------|------------------------------|
|--10r---8--10----8------------|--10--8--10r---10p-8----------|
|------------------------------|----------------------9-------|
|------------------------------|------------------------------|
|------------------------------|------------------------------|
|------------------------------|------------------------------|
|
|Guitar 3
|------------------------------|------------------------------|
|------------------------------|------------------------------|
|------------------------------|------------------------------|
|--7r---5--7----5--------------|--7--5--7r---7p-5-------------|
|------------------------------|-------------------7----------|
|------------------------------|------------------------------|

Solo Ryhthm:
|------------------------|
|------------------------|
|------------------------|
|---------------------5--|
|--7----5--7----5--7-----|
|------------------------|

Interlude:
Guitar 1
|------------------------------|--------------------------|
|------------------------------|--------------------------|
|--5---------------------------|--7-----------------------|
|--5---------------------------|--7-----------------------|
|--3---------------------------|--5-----------------------|
|------------------------------|--------------------------|
|
|Guitar 2
|------------------------------|--------------------------|
|------------------------------|--------------------------|
|------------------------------|--12--------14r---14--12--|
|------------------12----14----|--------------------------|
|--15--------15----------------|--------------------------|
|------------------------------|--------------------------|
Guitar 1
|--------------------|--------------------------------|
|--------------------|--------------------------------|
|--9-----------------|--9-----------------------------|
|--9-----------------|--9-----------------------------|
|--7-----------------|--7-----------------------------|
|--------------------|--------------------------------|
|
|Guitar 2
|--------------------|--------------------------------|
|--------------------|--------------------------------|
|--11----------------|--14r-------14--------12--------|
|--------------------|--------------------------------|
|--------------------|--------------------------------|
|--------------------|--------------------------------|

Guitar 1
|------------------------------|--------------------------|
|------------------------------|--------------------------|
|--5---------------------------|--7-----------------------|
|--5---------------------------|--7-----------------------|
|--3---------------------------|--5-----------------------|
|------------------------------|--------------------------|
|
|Guitar 2
|------------------------------|--------------------------|
|------------------------------|--------------------------|
|------------------------------|--12--------14r---14--12--|
|------------------12----14----|--------------------------|
|--15--------15----------------|--------------------------|
|------------------------------|--------------------------|
Guitar 1
|--------------------|--------------------------------|
|--------------------|--------------------------------|
|--9-----------------|--9-----------------------------|
|--9-----------------|--9-----------------------------|
|--7-----------------|--7-----------------------------|
|--------------------|--------------------------------|
|
|Guitar 2
|--------------------|--------------------------------|
|--------------------|--------------------------------|
|--11----------------|--12--------11------------------|
|--------------------|----------------------12--------|
|--------------------|--------------------------------|
|--------------------|--------------------------------|

Guitar 1
|------------------------------|--------------------------|
|------------------------------|--------------------------|
|--5---------------------------|--7-----------------------|
|--5---------------------------|--7-----------------------|
|--3---------------------------|--5-----------------------|
|------------------------------|--------------------------|
|
|Guitar 2
|------------------------------|--------------------------|
|------------------------------|--------------------------|
|------------------------------|--12--------14r---14--12--|
|------------------12----14----|--------------------------|
|--15--------15----------------|--------------------------|
|------------------------------|--------------------------|
Guitar 1
|--------------------|--------------------------------|
|--------------------|--------------------------------|
|--9-----------------|--9-----------------------------|
|--9-----------------|--9-----------------------------|
|--7-----------------|--7-----------------------------|
|--------------------|--------------------------------|
|
|Guitar 2
|--------------------|--------------------------------|
|--------------------|--15b-------15--------12--------|
|--11----------------|--------------------------------|
|--------------------|--------------------------------|
|--------------------|--------------------------------|
|--------------------|--------------------------------|

Guitar 1
|------------------------------|--------------------------|
|------------------------------|--------------------------|
|--5---------------------------|--7-----------------------|
|--5---------------------------|--7-----------------------|
|--3---------------------------|--5-----------------------|
|------------------------------|--------------------------|
|
|Guitar 2
|------------------------------|--------------------------|
|------------------------------|--------------------------|
|------------------------------|--12--------14r---14--12--|
|------------------12----14----|--------------------------|
|--15--------15----------------|--------------------------|
|------------------------------|--------------------------|
Guitar 1
|--------------------|----------------------|
|--------------------|----------------------|
|--9-----------------|--5----------7--------|
|--9-----------------|--5----------7--------|
|--7-----------------|--3----------5--------|
|--------------------|----------------------|
|
|
|--------------------|----------------------|
|--------------------|----------------------|
|--11----------------|--12--------14--------|
|--------------------|----------------------|
|--------------------|----------------------|
|--------------------|----------------------|

Chorus:
Use This Ryhthm For Guitar 1 AT The End Of The Last Chorus:
|-----------------------|-----------------------|-----------------------|
|-----------------------|-----------------------|-----------------------|
|--9--9--9--9--9--------|--5--5--5--5--5--------|-----------------------|
|--9--9--9--9--9--------|--5--5--5--5--5--------|--5--5--5--5--5--------|
|--7--7--7--7--7--------|--3--3--3--3--3--------|--5--5--5--5--5--------|
|-----------------------|-----------------------|--3--3--3--3--3--------|
|-----------------------|
|-----------------------|
|--7--7--7--7--7--------|
|--7--7--7--7--7--------|
|--5--5--5--5--5--------|
|-----------------------|
On Last Time PLay This:
|-----------------------|-----------------------|-----------------------|
|-----------------------|-----------------------|-----------------------|
|--9--9--9--9--9--------|--5--5--5--5--5--------|-----------------------|
|--9--9--9--9--9--------|--5--5--5--5--5--------|--5--5--5--5--5--------|
|--7--7--7--7--7--------|--3--3--3--3--3--------|--5--5--5--5--5--------|
|-----------------------|-----------------------|--3--3--3--3--3--------|
|-----------------------|-----------------------|
|-----------------------|-----------------------|
|--7--------------------|-----------------------|
|--7--------------------|-----------------------|
|--5--------------------|-----------------------|
|-----------------------|-----------------------|
Outro:

Guitar 1
|--12-----10------10-------------|---------10------12-----10----|----------------------10------|
|-------------12------12---------|--10---------12---------------|----12---------10---------12--|
|------9------------------9--12--|------9--------------9--------|--------9--12------9----------|
|--------------------------------|------------------------------|------------------------------|
|--------------------------------|------------------------------|------------------------------|
|--------------------------------|------------------------------|------------------------------|
|
|Guitar 2
|--------------------------------|------------------------------|------------------------------|
|--------------------------------|------------------------------|------------------------------|
|--------------------------------|------------------------------|------------------------------|
|--2-----------------------------|------------------------------|------------------------------|
|--2-----------------------------|------------------------------|------------------------------|
|--0-----------------------------|------------------------------|------------------------------|

|-12-----10-----------------|---------10-----12-----10----|----------------------10------|
|----------------12---------|--10---------12--------------|----12---------10---------12--|
|-----9--------------9--12--|------9-------------9--------|--------9--12------9----------|
|---------------------------|-----------------------------|------------------------------|
|---------------------------|-----------------------------|------------------------------|
|---------------------------|-----------------------------|------------------------------|
|
|Guitar 2
|---------------------------|-----------------------------|------------------------------|
|---------------------------|-----------------------------|------------------------------|
|---------------------------|-----------------------------|------------------------------|
|---------------------------|-----------------------------|------------------------------|
|---------------------------|-----------------------------|------------------------------|
|---------------------------|-----------------------------|------------------------------|




Ваше мнение



Капча