From: [email protected] ()
Losfer Words
by Iron Maiden
transcribed by Rob Schenk
intro
--------------------------------------------
--------------------------------------------
--------------------------------------------
--------------------------------------------
-000-12-00-10-00-9-00-10-00-9-00-7-00-3-2-3-
--------------------------------------------
--------------------------------------------
--------------------------------------------
--------------------------------------------
--------------------------------------5-5-5-
-000-12-00-10-00-9-00-10-00-9-00------5-5-5-
--------------------------------------3-3-3-
----------------------------------------------
----------------------------------------------
----------------------------------------------
----------------------------------------------
--------5-5-5---------------------------5-5-5-
-000000-3-3-3-000000-5-5-5-5-3-2-000000-3-3-3-
--------------------------------------------
--------------------------------------------
--------9-9-9-9-----------------------------
--------7-7-7-7-----------------------------
--------------------------------------------
-000000-------------------------------------
Theme 1
----12-12-13-15-13-12-----14-14-14-15-15-15-17-17-17-17p15p14-
-13-------------------15--------------------------------------
--------------------------------------------------------------
--------------------------------------------------------------
--------------------------------------------------------------
--------------------------------------------------------------
--------------------------------------------
-16-/11-11-13-13/15-13----------------------
--------------------------------------------
--------------------------------------------
--------------------------------------------
--------------------------------------------
Theme 2 (play under solo also)
-----------------------------------------------
-----------------------------------------------
-5p4p0-5p4p0-5p4p0-5p4p0-7p5p0-7p5p0-7p5p0-7p5p0-
-----------------------------------------------
-----------------------------------------------
-----------------------------------------------
----------------------------------------------
----------------------------------------------
-8----3---3-5-7-5-----------------------------
-8----3---3-5-7-5-----------------------------
-6----1---1-3-5-3-----------------------------
----------------------------------------------
Theme 3 (repeat)
-12-00-7-00-8-00-5-00-7-00-3-00-5-00-2-----
-------------------------------------------
-------------------------------------------
-------------------------------------------
-------------------------------------------
-------------------------------------------
Theme 4
---------------------------------------
-/11-10v-8-10-8-------/11-10v-8-10-8----
----------------8v------------------8--
---------------------------------------
---------------------------------------
---------------------------------------
-----------------------------------------
-/13-11v-10-11--------/13-11v-10-11-10----
---------------10v--------------------10v-
-----------------------------------------
-----------------------------------------
-----------------------------------------
last fill
----------11bv-------------------------
-10-11-10------------------------------
---------------------------------------
---------------------------------------
---------------------------------------
---------------------------------------
repeat intro and theme 1
fill for theme 1 at end
-15p13p12-15p13p12-15p13p12-15p13p12----
---------------------------------------
--------------------------------------
--------------------------------------
--------------------------------------
--------------------------------------
outro
---------------------------------------------
-5-3-------3-5-3-------3-5-3-------3-5-3-----
-----5-3-5-------5-3-5-------5-3-5-------5-3-
---------------------------------------------
---------------------------------------------
---------------------------------------------




Ваше мнение



Капча