Iron Maiden - Look for the Truth
Album: X-Factor
By Felipe Cine
Clean Guitar (intro) (it can be played w/ some kinda chorus)
e|---------------------------------------------------------3--------------|
B|-----------------------------------------------------------3------------|
G|---------0---------------0---------------0-------------0-----0----------|
D|-----2-------2-------2-------2-------2-------2-------0---------0--------|
A|---2---2---2---2---2---2---2---2---2---2---2---0---2--------------------|
E|-0---------------0---------------0---------------3----------------------|
|
e|-------3-2--------------------------------------------------------------|
B|-----3-----3-------------3---------------0---------------0--------------|
G|---2---------2-------0-------0-------5-------5-------7-------7----------|
D|-0-------------0---4---4---4---4---5---5---5-------7---7---7---0--------|
A|-----------------2---------------3-------------3/5----------------------|
E|------------------------------------------------------------------------|
|
e|---------0-------------------------------0---------------3--------------|
B|-----------0-------------9-----------------0---------------3------------|
G|-----9-------9-------9-------9-0-------0---------------0-----0----------|
D|---9---9-------9---9---9---9---0-----2-------2-0-----0---------0--------|
A|-7---------------7-----------------2---------------2--------------------|
E|---------------------------------0---------------3----------------------|
|
e|-------3-2-------------------------------0---------------0--------------|
B|-----3-----3-------------3-------------0---0-----------0---0------------|
G|---2---------2-0-----0-------0-------5-------5-------7-------7----------|
D|-0-----------------4---4---4---4---5-----------5---7-----------7--------|
A|-----------------2---------------3---------------5----------------------|
E|------------------------------------------------------------------------|
|
e|---------0-------------------------------0---------------3--------------|
B|-----------0-------------0-----------------0---------------3------------|
G|-----9-------9-------9-------9---------0---------------0-----0----------|
D|---9---9-------9---9---9---9---0-----2-------2-0-----0---------0--------|
A|-7---------------7-----------------2---------------2--------------------|
E|---------------------------------0---------------3----------------------|
|
e|-------3-2--------------------------------------------------------------|
B|-----3-----3-------------3---------------0---------------0--------------|
G|---2---------2-------0-------0-------5-------5-------7-------7----------|
D|-0-------------0---4---4---4---4---5---5---5-------7---7---7---0--------|
A|-----------------2---------------3-------------3-5----------------------|
E|------------------------------------------------------------------------|
|
e|---------0-------------------------------0---------------3--------------|
B|-----------0-------------9-----------------0---------------3------------|
G|-----9-------9-------9-------9-0-------0---------------0-----0----------|
D|---9---9-------9---9---9---9---0-----2-------2-0-----0---------0--------|
A|-7---------------7-----------------2---------------2--------------------|
E|---------------------------------0---------------3----------------------|
|
e|-------3-2-------------------------------0---------------0--------------|
B|-----3-----3-------------3-------------0---0-----------0---0------------|
G|---2---------2-0-----0-------0-------5-------5-------7-------7----------|
D|-0-----------------4---4---4---4---5-----------5---7-----------7--------|
A|-----------------2---------------3---------------5----------------------|
E|------------------------------------------------------------------------|

e|---------0-------------------------------0---------------3--------------|
B|-----------0-------------0-----------------0---------------3------------|
G|-----9-------9-------9-------9---------0---------------0-----0----------|
D|---9---9-------9---9---9---9---0-----2-------2-0-----0---------0--------|
A|-7---------------7-----------------2---------------2--------------------|
E|---------------------------------0---------------3----------------------|
|
e|-------3-2--------------------------------------------------------------|
B|-----3-----3-------------3---------------0---------------0--------------|
G|---2---------2-------0-------0-------5-------5-------7-------7----------|
D|-0-------------0---4---4---4---4---5---5---5-------7---7---7---0--------|
A|-----------------2---------------3-------------3-5----------------------|
E|------------------------------------------------------------------------|
|
e|---------0-------------------------------0---------------3--------------|
B|-----------0-------------9-----------------0---------------3------------|
G|-----9-------9-------9-------9-0-------0---------------0-----0----------|
D|---9---9-------9---9---9---9---0-----2-------2-0-----0---------0--------|
A|-7---------------7-----------------2---------------2--------------------|
E|---------------------------------0---------------3----------------------|
|
e|-------3-2-------------------------------0---------------0--------------|
B|-----3-----3-------------3-----------------0---------------0------------|
G|---2---------2-------0-------0-------5-------5-------7-------7----------|
D|-0-------------0---4---4---4---4---5---5-------5---7---7-------7--------|
A|-----------------2---------------3---------------5----------------------|
E|------------------------------------------------------------------------|
|
e|------------------------------------------------------------------------|
B|------------------------------------------------------------------------|
G|------------------------------------------------------------------------|
D|-9-9-9-9-9-9-9-9--2-2-2-2-2-2-2-2---------------------------------------|
A|-7-7-7-7-7-7-7-7--2-2-2-2-2-2-2-2---------------------------------------|
E|------------------0-0-0-0-0-0-0-0---------------------------------------|
This is w/ dist. on
e|-----------3--2-----------------2---------------------------------------|
B|-----------3--3--------3--3-3---3---------------------------------------|
G|-----------0--2--------4--4-4---2---------------------------------------|
D|--2--2-2---0--0--------4--4-4---0--2------------------------------------|
A|--2--2-2---2-----------2--2-2------2------------------------------------|
E|--0--0-0---3-----------------------0------------------------------------|
Oh, oh oh oh, oh oh! Oh, oh oh,Oh Oh!
Verse
e|-------------------------------------------------------------------------|
B|-------------------------------------------------------------------------|
G|---9-9-9-9------5-5-5-5------7-7-7-7---4-4--5-5------9-9-9-9-----5-5-5-5-|
D|-7-9-9-9-9----8-5-5-5-5----5-7-7-7-7---4-4--5-5----7-9-9-9-9-----5-5-5-5-|
A|-7-7-7-7-7----8-3-3-3-3----5-5-5-5-5---2-2--3-3----7-7-7-7-7---8-3-3-3-3-|
E|-------------------------------------------------------------------------|
| In the house, of my soul....
|
e|-----------------------------------------------------|
B|-----------------------------------------------------|
G|---7-7-7-7---4-4-------------------------------------| Я 2x
D|-5-7-7-7-7---4-4---2---------------------------------|
A|-5-5-5-5-5---2-2---0---------------------------------|
E|---------------------3-------------------------------|

Chorus: Look for the truth.........
e|-------------------------------------------------------|
B|-------------------------------------------------------|
G|-9-9--9-9--7--5-5--5-5----12-12--12-12----7-7--7-7-----|
D|-9-9--9-9--7--5-5--5-5----12-12--12-12----7-7--7-7-----|
A|-7-7--7-7--5--3-3--3-3----10-10--10-10----5-5--5-5-----|
E|-------------------------------------------------------|
|
|
| (2nd Guitar) Chorus: Look for the truth.........
e|---------------------------------------------------|
B|---------------------------------------------------|
G|-9-9--9-9--7--5-5--5-5----------------7-7--7-7-----|
D|-9-9--9-9--7--5-5--5-5----5-5--5-5----7-7--7-7-----|
A|-7-7--7-7--5--3-3--3-3----5-5--5-5----5-5--5-5-----|
E|--------------------------3-3--3-3-----------------|
Interlude
e|-----------------------------------------------------------------------|
B|----------12-13-15--15-13-12--13-12----------------------------12-13-15|
G|14--12-14---------------------------14-12-14------12-14--12-14---------|
D|-----------------------------------------------14----------------------|
A|-----------------------------------------------------------------------|
E|-----------------------------------------------------------------------|
|
e|------------------------------------------------------------|
B|-13-12----13-12---------------------------------------------|
G|----------------14-12-14------------------------------------| Я 2x
D|------------------------------------------------------------|
A|------------------------------------------------------------|
E|------------------------------------------------------------|
Outro
e|----------------------------------------------|
B|----------------------------------------------|
G|-9--9----12---12----7--7----------------------| Я 1st guitar
D|-9--9----12---12----7--7----------------------|
A|-7--7----10---10----5--5---3-2----------------|
E|-------------------------------5-3-5-3-2-0----|
|
e|----------------------------------------------|
B|----------------------------------------------|
G|-9--9----12---12----7--7----------------------| Я 2nd guitar
D|-9--9----12---12----7--7---10-10---12-12------|
A|-7--7----10---10----5--5---10-10---12-12------|
E|---------------------------8--8----10-10------|
By Felipe Cine
Ty
L8r




Ваше мнение



Капча