IRON MAIDEN
JOURNEYMAN
INTRO :
e|--------------------------------------------------|
B|-1-----1----0-----0-----3-----3-----1-----1-------|
G|-----2----2-----2-----2-----2-----2-----2-----2---|
D|---2----2-----2-----2-----2-----2-----2-----2-----|REPEAT X2
A|-0----------0-----------0-----------0-------------|
E|--------------------------------------------------|
THEN...
RIFF 1 :

guitar 1 :
e|--------------------------------------------------|
B|-1-----1----0-----0-----3-----3-----1-----1-------|
G|-----2----2-----2-----2-----2-----2-----2-----2---|
D|---2----2-----2-----2-----2-----2-----2-----2-----|
A|-0----------0-----------0-----------0-------------|
E|--------------------------------------------------|
| |
|guitar 2 : |
e|--------------------------------------------------|
B|-1---------0------------3-----------1-------------|
G|-2---------2------------2-----------2-------------|
D|-2---------2------------2-----------2-------------|
A|-0---------0------------0-----------0-------------|
E|--------------------------------------------------|
| |
| |
|guitar 3 |
e|--------------------------------------------------|
B|--------------------3s5---------------------------|
G|----3s5--4--5s7--5-------7---3s5--4---------------|
D|--------------------------------------------------|
A|--------------------------------------------------|
E|--------------------------------------------------|
RIFF 2 :
e|-0-----0------------------------------------------|
B|-----1----1-3-----3-----1-----1----0-----0--------|
G|---2----2-------2-----2-----2----2-----2-----2----|
D|-3----------3-3-----3-----0----0-----0-----0------|
A|--------------------------------------------------|
E|------------------------3----------3--------------|
| |
| |
e|-0---------0-----------0-----------0--------------|
B|-1---------3-----------1-----------0--------------|
G|-2---------2-----------2-----------2--------------|
D|-3---------3-----------0-----------0--------------|
A|-0---------0--------------------------------------|
E|-----------------------3-----------3--------------|
| |
| |
|
e|--------------------------------------------------|
B|--------------------3s5---------------------------|
G|----3s5--4--5s7--5-------7---3s5--4---------------|
D|--------------------------------------------------|
A|--------------------------------------------------|
E|--------------------------------------------------|
Repeat riff 1 and riff 2
and then ....
( F7+ e A ) few times
F7+ A
From the red sky of the east. To the sunset in the west
F7+ A
We have cheated death. And he has cheated us
F7+ A
But that was just a dream. And this is what it means
F7+ A
We are sleeping and we'll dream for Evermore
C D A
And the fragment remains. Of our memories
C D G
And the shadows we made. With our hands
C D C D
Deeper grey, came to mourn. All the colours of the dawn
C D A
Will this journeyman's day. Be his last
Chorus :
Dm F
I know what I want. And I say what I want
C Bb9 C9
And no one can take it away
(F7+ A)
F7+ A
But the memory still remains. All the past years not so strange
F7+ A
Our winter times are. Like a silent shroud
F7+ A
And the heartbeat of the day. Drives the mist away
F7+ A
And the winter's not the only dream around
C D A
In your life you choose desoltaion
C D G
And the shadow's you build with your hands
C D C D
If you turn to the light. That is burning in the night
C D A
Then your journeyman's day has begun
Chorus
C D A
In your life you choose desoltaion
C D G
And the shadow's you build with your hands
C D C D
If you turn to the light. That is burning in the night
C D A
Then your journeyman's day has begun
Chorus
E A D G B e
A 0 0 2 2 2 0
C 0 3 2 0 1 0
G 3 2 0 0 3 3
F7+ 0 0 3 2 1 0
F 1 3 3 2 1 1
D 0 0 0 2 3 2
Dm 0 0 0 2 3 1
Bb9 1 1 3 3 1 1
C9 3 3 5 5 3 3




Ваше мнение



Капча