"Innocent Exile" by Iron Maiden (from the album "Killers")
==========================================================

e q e q e e e q e e e e e e q e q e e e q e e e e e 8
+---+----2---------+---2---4---4----+----2---------+---2---4---4----+
|8:-|*-0---0-------|-0---4---4---4-*|*-0---0-------|-0---4---4---4-*|
|8:-|*-------3---3-|---------------*|*-------3---3-|---------------*|
+---+----------3---+----------------+----------3---+----------------+
intro bass guitar enters

e e e e q e e e e e e e e e e e e e e q e e e e e e e e e e
+----------------+-----------------+---------------+-----------------+
|*-----R---3-----|-R---3-----------|-----R---3-----|-R---3---5-3-----|
|*-5-5---5---5-5-|---5---5-5-0-3-4-|-5-5---5---5-5-|---5---5-----5-4-|
+----------------+-----------------+---------------+-----------------+
1st verse

e e e e q e e e e e e e e e e e e e e q e e e e e e e e e e
+---------------+-----------------+---------------+------------------+
|-----R---1-----|-R---1-----------|-----R---1-----|-R---1-----------*|
|-3-3---3---3-3-|---3---3-3-0-1-2-|-3-3---3---3-3-|---3---3-3-0-4-0-*|
+---------------+-----------------+---------------+------------------+


e e e e e Q e e e e e Q e e e e e Q e e e q e e e e e e e e Q
+-------------+-------------+-------------+-------2-------+-------------+
|-----------R-|-----------R-|-----------R-|-----R---3-2-R-|-----------R-|
|-5-5-5-5-5---|-3-3-3-3-3---|-1-1-1-1-1---|-0-0-----------|-5-5-5-5-5---|
+-------------+-------------+-------------+---------------+-------------+


e e e e e Q e e e e e Q e e e q e e e e e e e q e e e e e e e e e e
+-------------+-------------+---------------+----------------+-----------------+
|-----------R-|-----------R-|-----R---------|*-----R---3-----|-R---3-----------|
|-3-3-3-3-3---|-1-1-1-1-1---|-0-0---3-0-3-4-|*-5-5---5---5-5-|---5---5-5-0-3-4-|
+-------------+-------------+---------------+----------------+-----------------+
2nd verse

e e e e q e e e e e e e e e e e e e e q e e e e e e e e e e
+---------------+-----------------+---------------+-----------------+
|-----R---3-----|-R---3---5-3-----|-----R---1-----|-R---1-----------|
|-5-5---5---5-5-|---5---5-----5-4-|-3-3---3---3-3-|---3---3-3-0-1-2-|
+---------------+-----------------+---------------+-----------------+


e e e e q e e e e e e e e e e e e e e e Q e e e e e Q e e e e e Q
+---------------+------------------+-------------+-------------+-------------+
|-----R---1-----|-R---1-----------*|-----------R-|-----------R-|-----------R-|
|-3-3---3---3-3-|---3---3-3-0-4-0-*|-5-5-5-5-5---|-3-3-3-3-3---|-1-1-1-1-1---|
+---------------+------------------+-------------+-------------+-------------+


e e e q e e e e e e e e Q e e e e e Q e e e e e Q w+ w+ w
+-------2-------+-------------+-------------+-------------+---+---+---+
|-----R---3-2-R-|-----------R-|-----------R-|-----------R-|---|---|---|
|-0-0-----------|-5-5-5-5-5---|-3-3-3-3-3---|-1-1-1-1-1---|-0-|-0-|-0-|
+---------------+-------------+-------------+-------------+---+---+---+


e q e e e e e Q e h e e q h e e q h e e e e e q 3 Q e q e
+---7-----------+--------+---------+---------+--------------+---------+
|-9---9-9-9-7---|*-------|---------|---------|---R---R-----*|-------7-|
|-------------7-|*-------|-----3---|-----3---|-5---5---5-3-*|---------|
+---------------+--5-5-5-+-4-5---5-+-4-5---5-+--------------+-5-5-5---+


e e e e Q e e e e e q q e e e e e Q Q e h e e q h e e q h
+-------------+-------------+-------------+--------+---------+---------+
|-5---------7-|-5---------R-|---R---R-----|*-------|---------|---------|
|---7-5-------|---7-5-------|-5---5---5-3-|*-------|-----3---|-----3---|
+-------8-5---+-------8-5---+-------------+--5-5-5-+-4-5---5-+-4-5---5-+


e e e e e q w+ w e q e q e e e q e e e e e e q e q e e
+--------------+---+---+----2---------+---2---4---4----+----2---------+
|---R---R-----*|-2-|-2-|*-0---0-------|-0---4---4---4-*|*-0---0-------|
|-5---5---5-3-*|---|---|*-------3---3-|---------------*|*-------3---3-|
+--------------+---+---+----------3---+----------------+----------3---+
as intro

e q e e e e e 8 e e q e e e e 3 e e e^e^e e^e^e e e e e q e e e e 8
+---2---4---4----+-----------------+---------------------+-----------------+
|-0---4---4---4-*|*-----3---------*|-------5-6-7-7-7-5---|*-----3---------*|
|---------------*|*-5-5---5---3-4-*|-5-5-8-------------5-|*-5-5---5---3-4-*|
+----------------+----------3------+---------------------+----------3------+
compound rhythm (e e means q^e) guitar solo

e e e e e e e e e e e e e e e e e e e e e e e e e e e e e e e e 5
+------------------+-----------------+-----------------+------------------+
|*-----------------|-----------------|-----------------|-----------------*|
|*-5-5-5-5-5-5-5-5-|-3-3-3-3-3-3-3-3-|-1-1-1-1-1-1-1-1-|-0-0-0-0-3-0-3-4-*|
+------------------+-----------------+-----------------+------------------+


e e e e e e e e e e e e q e e e e e e e^e^e e e e e e e e e e e
+-----------------+-----------0-2-+-3-3-3-3-2-2-------+-----------------+
|-----------------|---------3-----|-------------3-----|-----------------|
|-5-5-5-5-5-5-5-5-|-3-3-3-3-------|---------------4-2-|-0-0-0-0-3-0-3-4-|
+-----------------+---------------+-------------------+-----------------+


e e e e e e e e e e e e q e e e e e e e e e e e e e e e e e e
+-----------------+---------------+-----------------+-----------------+
|-------------3---|---------3-3-3-|-----------------|-----3-0-3-0-3-0-|
|-5-5-5-5-5-5---5-|-3-3-3-3-------|-1-1-1-1-1-1-1-1-|-0-0-------------|
+-----------------+---------------+-----------------+-----------------+


e e e e e e e e e e e e q e e e e e^e^e e e e^e^e e e e^e^e e e e^e^e
+-----------------+---------------+---------------------+---------------------+
|-0-0-0-0-0-0-0-0-|---------3-0-0-|---------------------|---------------------|
|-----------------|-3-3-3-3-------|-1-1-1-1-1-1-1-1-1-1-|-0-0-0-0-0-3-3-3-3-3-|
+-----------------+---------------+---------------------+---------------------+


e e e e e e e e e e e e e e e e e e e e e e e e e e e e e e e e
+-----------------+-----------------+-----------------+-----------------+
|-------------3---|---------5-3-----|-----------------|-----------------|
|-5-5-5-5-5-5---5-|-3-3-3-3-----5-3-|-1-1-1-1-1-1-1-1-|-0-0-0-0-3-0-3-4-|
+-----------------+-----------------+-----------------+-----------------+


e e e e e e e e e e e e q e e e^e^e e^e^e e^e^e e^e^e
+-----------------+-----------0-2-+-3-3-3-3-3-3-2-2-2-2-2-2-+
|-----------------|---------3-----|-------------------------|
|-5-5-5-5-5-5-5-5-|-3-3-3-3-------|-------------------------|
+-----------------+---------------+-------------------------+


e^e^e e^e^e e^e^e e^e^e e e e^e^e e e e^e^e e e e^e^e e e e^e^e
+-------------------------+----------------------+---------------------+
|-3-3-3-3-3-3-------------|*---------------------|---------------------|
|-------------3-3-3-3-3-3-|*-5-5-5-5-5-5-5-5-5-5-|-3-3-3-3-3-3-3-3-3-3-|
+-------------------------+----------------------+---------------------+


e e e^e^e e e e^e^e e e e^e^e e e e e e e e e e Q e e e e e Q
+---------------------+--------------------+-------------+-------------+
|---------------------|-------------------*|-----------R-|-----------R-|
|-1-1-1-1-1-1-1-1-1-1-|-0-0-0-0-0-3-0-3-4-*|-5-5-5-5-5---|-3-3-3-3-3---|
+---------------------+--------------------+-------------+-------------+
binary rhythm

e e e e e Q e e e q e e e e e e e e Q e e e e e Q e e e e e Q w
+-------------+-------2-------+-------------+-------------+-------------+---+
|-----------R-|-----R---3-2-R-|-----------R-|-----------R-|-----------R-|---|
|-1-1-1-1-1---|-0-0-----------|-5-5-5-5-5---|-3-3-3-3-3---|-1-1-1-1-1---|-0-|
+-------------+---------------+-------------+-------------+-------------+---+


Q Q Q Q Q Q Q Q e^e^e e^e^e e^e^e e^e^e
+-------+-----+-----+-----+---------------------------+
|6:-----|-----|-----|-----|8:---------------------7-7-|
|8:-0-1-|-0-1-|-0---|-----|8:-5-5-5-5-5-5-5-5-5-5-----|
+-------+-----+---3-+-1-0-+---------------------------+


e^e^e e^e^e s s s s e^e^e q q h+ w+ h h
+-7-7-7-7-7-7-7-7-5---------+-------+---+-----+
|-------------------7-7-5---|-5-----|---|---R-|
|-------------------------8-|---8-5-|-5-|-5--|
+---------------------------+-------+---+-----+


==========================================================================

Created using the Bass Tab Creator
__ by Mario D`Alessio (motcid!marble!dalessio)
+|oo|+
+|oo|+ Notes: w = Whole h = Half q = Quarter
|| e = 8th s = 16th t = 32nd x = 64th
||
|| Capital durations are dotted notes
|| (equal to 1.5 times the duration value)
||
|| #
|| +----+ +----+
_ || _ |*--*+ = MEASURE |4:--| = TIME
_||_// |*--*+ REPEATS |4:--| SIGNATURES
| [] | +----+ (#=Num Repeats) +----+
| || |
/ [] + = TIE ^ = TRIPLET > = BEND
______/ H = HAMMER ON = SLIDE TO FRET R = Rest
P = PULL OFF X = SLIDE TO NOWHERE ~ = Trill


==========================================================================

tabbed by Gilles Velay ([email protected])




Ваше мнение



Капча