_
| |> / || |/| /| | | |_ ||
| | /__ | | | | | | |/ |_ | |

Bass tab
Transcribed by G. Crisan ( [email protected] )

All textual notes refer to the tab ABOVE it. Any comments, suggestions,
or errors refering to the tab below that should be brought to my attention,
please e-mail me. Also, If you would like to join my mailing list for both
Tabs and BTabs please e-mail me with your request.

Tab explanations
-----------------------------------------------------
> Accent | / Slide up
. Staccatto | Slide down
h Hammer-on/ pull off | : Harmonic | ~ slight bend
-----------------------------------------------------


Holy Smoke ( Harris/Dickinson )
( From the album " No Prayer For The Dying" )


--9--------4--------7-----2----9------------7h999-999-99----------9----------
--9--------4--------7-----2----9--------------------------77------9----------
--7--------2--------5-----0----7----7-7-7-7------------------7----7-7-7-7--7-
-----------------------------------------------------------------------------

------------------------4----------------------------------7----------------2
------------------------4----------------------------------7----------------2
-7-7-7--7-7-7-7--7-7-7--2--2-2-2--2-2-2-2--2-2-2-2--2-2-2--5--5-5-5--5-5-5--0
-----------------------------------------------------------------------------

---------------9--------------------9----9-9-9-9-9-------9----------------7--
---------------9------------------9----9-----------9-----9----------------7--
-0-0-0--0-0-0--7--7-7-7--7-7-7-7----------------------7--7--7-7-7--7-7-7--5--
-----------------------------------------------------------------------------

------------------------------------.--.------9----------------7-------------
----------------5--5-5-5--5-5-5--7--7--5--7---9----------------7-------------
-5-5-5--5-5-5---------------------------------7--7-7-7--7-7-7--5--5-5-5--5-5-
-----------------------------------------------------------------------------

------------------------.--.-----9----------------7--------------------------
----5--5-5-5--5-5-5--7--7--5--7--9----------------7----------------5--5-5-5--
-5-------------------------------7--7-7-7--7-7-7--5--5-5-5--5-5-5------------
-----------------------------------------------------------------------------

-----------.--.-----9----------------7------------------------------------.--
-5-5-5--7--7--5--7--9----------------7----------------5--5-5-5--5-5-5--7--7--
--------------------7--7-7-7--7-7-7--5--5-5-5--5-5-5-------------------------
-----------------------------------------------------------------------------

-.-----9---------------------------------7-------------------.-----.--9------
-5--7--9----------------5--5-5-5--5-5-5--7----------------7--7--5--7--9------
-------7--7-7-7--7-7-7-------------------5--5-5-5--5-5-5--------------7--7-7-
-----------------------------------------------------------------------------
" Holy smoke..."

----------------------------7--------------------.-----.---9-----------------
-----------5--5-5-5--5-5-5--7-----------------7--7--5--7---9---------------5-
-7--7-7-7-------------------5--5-5-5--5-5-5----------------7--7-7-7--7-7-7---
-----------------------------------------------------------------------------

----------------7-------------------------------------9----------------------
-5-5-5--5-5-5---7-----------------7---7-7-------5-4---9-----------------5--5-
----------------5--5-5-5--5-5-5-----------------------7--7-7-7--7-7-7--------
-----------------------------------------------------------------------------

-------------7---------------------------------9-----------------7-----------
-5-5--5-5-5--7----------------7---7-7----5-4---9-----------------7-----------
-------------5--5-5-5--5-5-5-------------------7--7-7-7--7-7-7---5--5-5-5----
-----------------------------------------------------------------------------
" Jimmy the reptile..."


------------------------------.--.-----9----------------7--------------------
----------5--5-5-5--5-5-5--7--7--5--7--9----------------7----------------5---
-5-5-5---------------------------------7--7-7-7--7-7-7--5--5-5-5--5-5-5------
-----------------------------------------------------------------------------

-------------------.--.-----9----------------7-------------------------------
-5-5-5--5-5-5---7--7--5--7--9----------------7-----------------5--5-5-5--5-5-
----------------------------7--7-7-7--7-7-7--5--5-5-5--5-5-5-----------------
-----------------------------------------------------------------------------

-------.--.-----9----------------7------------------------------------.--.---
-5--7--7--5--7--9----------------7----------------5--5-5-5--5-5-5--7--7--5--7
----------------7--7-7-7--7-7-7--5--5-5-5--5-5-5-----------------------------
-----------------------------------------------------------------------------

-9---------------------------------7-------------------.-----.--9------------
-9----------------5--5-5-5--5-5-5--7----------------7--7--5--7--9------------
-7--7-7-7--7-7-7-------------------5--5-5-5--5-5-5--------------7--7-7-7--7-7
-----------------------------------------------------------------------------

---------------------7--------------------.-----.---9------------------------
----5--5-5-5--5-5-5--7-----------------7--7--5--7---9---------------5--5-5-5-
-7-------------------5--5-5-5--5-5-5----------------7--7-7-7--7-7-7----------
-----------------------------------------------------------------------------

---------7-------------------------------------9-----------------------------
-5-5-5---7-----------------7---7-7-------5-4---9-----------------5--5-5-5--5-
---------5--5-5-5--5-5-5-----------------------7--7-7-7--7-7-7---------------
-----------------------------------------------------------------------------




Ваше мнение



Капча