i think this Iron Maiden song rocks, heres my tabs for it...if you got any
corrections email me @ [email protected]
Intro:
1st Guitar
e-------------------------------------------------
b----10-----------------------10------------------
g-------12-109-10---------------12-109-10-------
d-12-----------------10~---12-----------------10~-
a-------------------------------------------------
E-------------------------------------------------
----------------------------------------------------------------|
---------------------------------------10-----------------------|
---12-109-----------12-109--------------12-109-10------------|
-8----------12-10~-8---------12-10~-12---------------10~--------|
----------------------------------------------------------------|
----------------------------------------------------------------|
1st Guitar
e--------------------------------------------------------------------
b-------------------------------------------------------------10-----
g---12-109----------12-109---------12-109----------9-10-12--------
d-12--------12-10---8--------12-10-10--------12-10--12-----------12~-
a--------------------------------------------------------------------
E--------------------------------------------------------------------
-------------------------------------------------------------------|
------------------------------------------------------------10-----|
--12-109----------12-109---------12-109----------9-10-12--------|
12-------12-10---8--------12-10-10--------12-10--12-----------12~--|
-------------------------------------------------------------------|
-------------------------------------------------------------------|
2nd Guitar
Dm Bbm/A# Cm Dm
e--10----------|--6-------------|-8-------------|-10----------------|
b--10----------|--6-------------|-8-------------|-10----------------|
g--x-----------|--x-------------|-x-------------|-x-----------------|
d--12----------|--8-------------|-10------------|-12----------------|
a--12----------|--8-------------|-10------------|-12----------------|
E--10----------|--6-------------|-8-------------|-10----------------|
then the build up:
e-x-------------|--x-------------|--x-----------|--x--|-x|-x|-x-|
b-x-------------|--x-------------|--x-----------|--x--|-x|-x|-x-|
g-7-------------|--3-------------|--5-----------|--7--|10|12|14-|
d-7-------------|--3-------------|--5-----------|--7--|10|12|14-|
a-5-------------|--1-------------|--3-----------|--5--|-8|10|12-|
E-x-------------|--x-------------|--x-----------|--x--|-x|-x|-x-|
then same but muted like this:
e-x-x-x-x-x-x-x-|--x-x-x-x-x-x-x-|--x-x-x-x-x-x-|--x--|-x|-x|-x-|
b-x-x-x-x-x-x-x-|--x-x-x-x-x-x-x-|--x-x-x-x-x-x-|--x--|-x|-x|-x-|
g-7-x-x-x-x-x-x-|--3-x-x-x-x-x-x-|--5-x-x-x-x-x-|--7--|10|12|14-|
d-7-x-x-x-x-x-x-|--3-x-x-x-x-x-x-|--5-x-x-x-x-x-|--7--|10|12|14-|
a-5-x-x-x-x-x-x-|--1-x-x-x-x-x-x-|--3-x-x-x-x-x-|--5--|-8|10|12-|
E-x-x-x-x-x-x-x-|--x-x-x-x-x-x-x-|--x-x-x-x-x-x-|--x--|-x|-x|-x-|
then lyrics come in:
I have sailed to.........
e-x-x-x-x-x-x-x-|--x-x-x-x-x-x-x-|--x-x-x-x-x-x-|--x--|-x|-x|-x-|
b-x-x-x-x-x-x-x-|--x-x-x-x-x-x-x-|--x-x-x-x-x-x-|--x--|-x|-x|-x-|
g-7-x-x-x-x-x-x-|--3-x-x-x-x-x-x-|--5-x-x-x-x-x-|--7--|10|12|14-|
d-7-x-x-x-x-x-x-|--3-x-x-x-x-x-x-|--5-x-x-x-x-x-|--7--|10|12|14-|
a-5-x-x-x-x-x-x-|--1-x-x-x-x-x-x-|--3-x-x-x-x-x-|--5--|-8|10|12-|
E-x-x-x-x-x-x-x-|--x-x-x-x-x-x-x-|--x-x-x-x-x-x-|--x--|-x|-x|-x-|

e-0---------|-0-----------|-0---------|-0--|-0-|-0---|
b-5---------|-5-----------|-3---------|-5--|-5-|-3---|
g-6---------|-5-----------|-4---------|-6--|-5-|-4---|
d-7---------|-7-----------|-5---------|-7--|-7-|-5---|
a-7---------|-7-----------|-5---------|-7--|-7-|-5---|
E-5---------|-5-----------|-3---------|-5--|-5-|-3---|
then:
Mysteries of time clouds............
1st guitar
riff
e-------------------------|
b-5-----------------------|
g---5-4-2-2^~-------------|
d-------------------------|
a-------------------------|
E-------------------------|
2nd guitar
e-0---------|-0-----------|-0---------|-0--|-0-|-0---|
b-5---------|-5-----------|-3---------|-5--|-5-|-3---|
g-6---------|-5-----------|-4---------|-6--|-5-|-4---|
d-7---------|-7-----------|-5---------|-7--|-7-|-5---|
a-7---------|-7-----------|-5---------|-7--|-7-|-5---|
E-5---------|-5-----------|-3---------|-5--|-5-|-3---|
I see the ghost of navigators but...........
e-x----------|-x-----------|-x---------|-x----------|
b-x----------|-x-----------|-x---------|-x----------|
g-7----------|-12----------|-5---------|-4----------|
d-7----------|-12----------|-5---------|-4----------|
a-5----------|-10----------|-3---------|-6----------|
E-x----------|-x-----------|-x---------|-x----------|
Take my heart and set it free.......
1st Guitar:
e-----------------------------------------------------
b----10-----------------------10----------------------
g-------12-109-10---------------12-109-10-----------
d-12-----------------10~---12-----------------10~-----
a-----------------------------------------------------
E-----------------------------------------------------
---------------------------------------------------------------|
--------------------------------------10-----------------------|
--12-109-----------12-109--------------12-109-10------------|
-8----------12-10~-8---------12-10~-12---------------10~-------|
---------------------------------------------------------------|
---------------------------------------------------------------|
2nd Guitar
e-x--|-x-|-x-|-x-|-x-|-x-------|x2 |-x-|-x-|-x---|x2
b-x--|-x-|-x-|-x-|-x-|-x-------| |-x-|-x-|-x---|
g-7--|14-|12-|10-|12-|-5-------| |-3-|12-|10---|
d-7--|14-|12-|10-|12-|-5-------| |-3-|12-|10---|
a-5--|12-|10-|-8-|10-|-3-------| |-1-|10-|-8---|
E-x--|-x-|-x-|-x-|-x-|-x-------| |-x-|-x-|-x---|
e-x--|-x-|-x-|-x-|-x-|-x-------|x1
b-x--|-x-|-x-|-x-|-x-|-x-------|
g-7--|14-|12-|10-|12-|-5-------|
d-7--|14-|12-|10-|12-|-5-------|
a-5--|12-|10-|-8-|10-|-3-------|
E-x--|-x-|-x-|-x-|-x-|-x-------|
I steer between the crashing rocks........
e-x-x-x-x-x-x-x-|--x-x-x-x-x-x-x-|--x-x-x-x-x-x-|--x--|-x|-x|-x-|
b-x-x-x-x-x-x-x-|--x-x-x-x-x-x-x-|--x-x-x-x-x-x-|--x--|-x|-x|-x-|
g-7-x-x-x-x-x-x-|--3-x-x-x-x-x-x-|--5-x-x-x-x-x-|--7--|10|12|14-|
d-7-x-x-x-x-x-x-|--3-x-x-x-x-x-x-|--5-x-x-x-x-x-|--7--|10|12|14-|
a-5-x-x-x-x-x-x-|--1-x-x-x-x-x-x-|--3-x-x-x-x-x-|--5--|-8|10|12-|
E-x-x-x-x-x-x-x-|--x-x-x-x-x-x-x-|--x-x-x-x-x-x-|--x--|-x|-x|-x-|
wayyyyyyyyyyy.......
1st Guitar
e-------------------------|
b-5-----------------------|
g---5-4-2-2^~-------------|
d-------------------------|
a-------------------------|
E-------------------------|
2nd guitar
e-0---------|-0-----------|-0---------|-0--|-0-|-0---|
b-5---------|-5-----------|-3---------|-5--|-5-|-3---|
g-6---------|-5-----------|-4---------|-6--|-5-|-4---|
d-7---------|-7-----------|-5---------|-7--|-7-|-5---|
a-7---------|-7-----------|-5---------|-7--|-7-|-5---|
E-5---------|-5-----------|-3---------|-5--|-5-|-3---|
I see the ghost of navigators but...........
e-x----------|-x-----------|-x---------|-x----------|
b-x----------|-x-----------|-x---------|-x----------|
g-7----------|-12----------|-5---------|-4----------|
d-7----------|-12----------|-5---------|-4----------|
a-5----------|-10----------|-3---------|-6----------|
E-x----------|-x-----------|-x---------|-x----------|
Take my heart and set it free.......
1st Guitar:
e-----------------------------------------------------
b----10-----------------------10----------------------
g-------12-109-10---------------12-109-10-----------
d-12-----------------10~---12-----------------10~-----
a-----------------------------------------------------
E-----------------------------------------------------
---------------------------------------------------------------|
--------------------------------------10-----------------------|
--12-109-----------12-109--------------12-109-10------------|
-8----------12-10~-8---------12-10~-12---------------10~-------|
---------------------------------------------------------------|
---------------------------------------------------------------|
2nd Guitar
e-x--|-x-|-x-|-x-|-x-|-x-------|x2 |-x-|-x-|-x---|x2
b-x--|-x-|-x-|-x-|-x-|-x-------| |-x-|-x-|-x---|
g-7--|14-|12-|10-|12-|-5-------| |-3-|12-|10---|
d-7--|14-|12-|10-|12-|-5-------| |-3-|12-|10---|
a-5--|12-|10-|-8-|10-|-3-------| |-1-|10-|-8---|
E-x--|-x-|-x-|-x-|-x-|-x-------| |-x-|-x-|-x---|
e-x--|-x-|-x-|-x-|-x-|-x-------|x1
b-x--|-x-|-x-|-x-|-x-|-x-------|
g-7--|14-|12-|10-|12-|-5-------|
d-7--|14-|12-|10-|12-|-5-------|
a-5--|12-|10-|-8-|10-|-3-------|
E-x--|-x-|-x-|-x-|-x-|-x-------|
LYRICS:
I have sailed to many lands now I make my final journey
On the bow I stand, west is where I go
Through the night I plough still my heart, calculate and pray
As the compass swings my will is strong I will not be led astrayyyyyyyyyy
Mysteries of time clouds that hide the sunnnnnnnnnnnn
But I know, I know
I see the ghost of navigators but they are lost
As they sail into the sunset they'll count the cost
As their skeletons accusing emerge from the sea
The sirens of the rocks, they beckon me
Take my heart and set it free
Carried forward by the waves
Nowhere left to run, Navigator's son
Chasing rainbows all my days
Where I go I do not know
I only know the place I've been
Dreams they come and go, ever shall be so
Nothing's real until you see
I steer between the crashing rocks, the sirens call my name
Lash my hands onto the helm, blood surging with the strain
I will not fail now as sunrise comes the darkness left behind
For eternity I follow on there is no other wayyyyyyyyy
Mysteries of time clouds that hide the sunnnnnnnnn
But I know, I knowwwww
sh** that took long,rite thatz bout all i know for now.....
keep it cool...
/
/
||
||
/||/
/
/ []
_vv_/

[email protected]




Ваше мнение



Капча