From: [email protected] (MADMAN)


"Flash of the Blade"
by Iron Maiden
Tabulated by Wolf Marshall (but typed by MADMAN)

2x
p h p h p h p p h p h p h p p h p h p h p p h p h p h p
[----------------|---------------|---------------|--------------------]
[+---------------|---------------|---------------|-------------------+]
[--^-^-^-^-^-^-^-|-^-^-^-^-^-^-^-|-^-^-^-^-^-^-^-|--^-^--^-^--^-^--^--]
[+7-0-7-0-7-0-7-0|7-0-7-0-7-0-7-0|8-0-8-0-8-0-8-0|10-0-10-0-10-0-10-0+]
[----------------|---------------|---------------|--------------------]
[----------------|---------------|---------------|--------------------]

Riff A[*****************************************************************
p h p h p h p p h p h p h p p h p h p h p p h p h p h p
[----------------|---------------|---------------|--------------------]
[+---------------|---------------|---------------|--------------------]
[--^-^-^-^-^-^-^-|-^-^-^-^-^-^-^-|-^-^-^-^-^-^-^-|--^-^--^-^--^-^--^--]
[+7-0-7-0-7-0-7-0|7-0-7-0-7-0-7-0|8-0-8-0-8-0-8-0|10-0-10-0-10-0-10-0-]
[----------------|---------------|---------------|--------------------]
[----------------|---------------|---------------|--------------------]
2x
**********************************************************************]
p h p h p h p p h p h p h p p h p h p h p p h p h p h p
[----------------|---------------|---------------|--------------------]
[----------------|---------------|---------------|-------------------+]
[--^-^-^-^-^-^-^-|-^-^-^-^-^-^-^-|-^-^-^-^-^-^-^-|--^-^--^-^--^-^--^--]
[-7-0-7-0-7-0-7-0|7-0-7-0-7-0-7-0|8-0-8-0-8-0-8-0|-5-0--5-0--5-0--5-0+]
[----------------|---------------|---------------|--------------------]
[----------------|---------------|---------------|--------------------]


> > > > > >
p.m. . . . . . . . . . . . . . . . . . . . . . .
[----------------|---------------|---------------]
[+---------------|---------------|---------------]
[----------------|---------------|---------------]
[+2-2-2-2-2-2-2-2|2-2-2-2-2-2-2-2|5-5-5-5-5-5-5-5]
[-0-0-0-0-0-0-0-0|0-0-0-0-0-0-0-0|3-3-3-3-3-3-3-3]
[----------------|---------------|---------------]

> > > > > >
p.m. . . . . . . . . . . . . . . . . . . . . . .
[-----------------|----------------|----------------]
[+----------------|----------------|----------------]
[-----------------|----------------|----------------]
[+4-4-4-4-4-4-4-4-|3-3-3-3-3-3-3-3-|3-3-3-3-3-3-3-3-]
[-2-2-2-2-2-2-2-2-|1-1-1-1-1-1-1-1-|1-1-1-1-1-1-1-1-]
[-----------------|----------------|----------------]

p p p.m.. . . . . . . . . . . . .
[-----------------|----------------|----------------]
[-----------------|----------------|----------------]
[---------------2-|(2)-------------|----------------]
[----------^----2-|(2)2-2-2-2-2-2-2|2-2-2-2-2-2-2-2-]
[--^------3-2---0-|(0)0-0-0-0-0-0-0|0-0-0-0-0-0-0-0-]
[-1-0-3-0-----3---|----------------|----------------]

> > > > > >
p.m. . . . . . . . . . . . . . . . . . . . . . .
[-----------------|----------------|----------------]
[-----------------|----------------|----------------]
[-----------------|----------------|----------------]
[-2-2-2-2-2-2-2-2-|5-5-5-5-5-5-5-5-|4-4-4-4-4-4-4-4-]
[-0-0-0-0-0-0-0-0-|3-3-3-3-3-3-3-3-|2-2-2-2-2-2-2-2-]
[-----------------|----------------|----------------]

> > > >
p.m. . . . . . . . . . . . . . .
[-----------------|----------------|----------------]
[-----------------|----------------|----------------]
[-----------------|----------------|--------------2-]
[-3-3-3-3-3-3-3-3-|3-3-3-3-3-3-3-3-|---------^----2-]
[-1-1-1-1-1-1-1-1-|1-1-1-1-1-1-1-1-|-----^--3-0---0-]
[-----------------|----------------|1-0-3-0-----3---]

###
[-----------------||---------------|----------------]
[-----------------||---------------|----------------]
[-(2)-------------||--7------------|--7---6-----7---]
[-(2)-------------||--7------------|--7---6-----7---]
[-(0)-------------||--5------------|--5---4-----5---]
[-----------------||---------------|----------------]


[----------------|---------------|----------------|-------------------]
[----------------|---------------|----------------|-------------------]
[--9-------------|--9---8----9---|--5-------------|--5----4-----5-----]
[--9-------------|--9---8----9---|--5-------------|--5----4-----5-----]
[--7-------------|--7---6----7---|--3-------------|--3----2-----3-----]
[----------------|---------------|----------------|-------------------]



[----------------|--------0------|----------------|-------------------]
[----------------|--------0------|----------------|-------------------]
[----------------|---------------|---7----7-------|--7----6-----7-----]
[----5-----------|---2-----------|---7----7-------|--7----6-----7-----]
[----5-----5-----|---2-----------|---5----5-------|--5----4-----5-----]
[----3-----2-----|---0-----------|----------------|-------------------]

[----------------|---------------|----------------|-------------------]
[----------------|---------------|----------------|-------------------]
[--9-------------|--9---8----9---|--5-------------|--5----4-----5-----]
[--9-------------|--9---8----9---|--5-------------|--5----4-----5-----]
[--7-------------|--7---6----7---|--3-------------|--3----2-----3-----]
[----------------|---------------|----------------|-------------------]
~~ ~~ ***on second time, goto @@@
[----------------|--------0------||---------------|------------------]
[----------------|--------0------||---------------|------------------]
[----------------|---------------||---------------|------------------]
[--5-------------|---2-----------||---------------|------------------]
[--5------5------|---2-----------||---------------|------------------]
[--3------2------|---0-----------||---------------|------------------]


p h p h p h p p h p h p h p p h p h p h p P H P H P H P P
[----------------|---------------|---------------|--------------------]
[+---------------|---------------|---------------|--------------------]
[--^-^-^-^-^-^-^-|-^-^-^-^-^-^-^-|-^-^-^-^-^-^-^-|--^-^--^-^--^-^--^--]
[+7-0-7-0-7-0-7-0|7-0-7-0-7-0-7-0|8-0-8-0-8-0-8-0|10-0-10-0-10-0-10-0-]
[----------------|---------------|---------------|--------------------]
[----------------|---------------|---------------|--------------------]

2X
p h p h p h p p h p h p h p p h p h p h p p h p h p h p
[----------------|---------------|---------------|--------------------]
[----------------|---------------|---------------|-------------------+]
[--^-^-^-^-^-^-^-|-^-^-^-^-^-^-^-|-^-^-^-^-^-^-^-|--^-^--^-^--^-^--^--]
[-7-0-7-0-7-0-7-0|7-0-7-0-7-0-7-0|8-0-8-0-8-0-8-0|-5-0--5-0--5-0--5-0+]
[----------------|---------------|---------------|--------------------]
[----------------|---------------|---------------|--------------------]

interlude a:
*3 guitars
~~~~~~~~~~~~~~~ ~~~~~~~~~~~~~~~ ^ ^ ^
{[---------------------|---------------------|---------------------]
{[---------------------|---------------------|--5--5--5--5---------]
{[---------------------|---------------------|--------------7--5---]
{[---7-----------------|---5-----------------|---------------------]
{[---------------------|---------------------|---------------------]
{[---------------------|---------------------|---------------------]
{
{[--5-0-5-7--8--7--5-0-|--5-0-5-7--8--7--5-0-|7-0--7--8--10-8--7--0]
{[---------------------|---------------------|---------------------]
{[---------------------|---------------------|---------------------]
{[---------------------|---------------------|---------------------]
{[---------------------|---------------------|---------------------]
{[---------------------|---------------------|---------------------]
{
{[--8-0-8-10-12-10-8-0-|--8-0-8-10-12-10-8-0-|10-0-10-12-13-12-10-0]
{[---------------------|---------------------|---------------------]
{[---------------------|---------------------|---------------------]
{[---------------------|---------------------|---------------------]
{[---------------------|---------------------|---------------------]
{[---------------------|---------------------|---------------------]

~~~~~~~~~~~ sl. ~~~~~~~~~~~~~~~ ~~~~~~~~~~~~~~~
{[------------------/--|---------------------|---------------------]
{[-----------------/---|---------------------|---------------------]
{[---4---------(4)/----|---------------------|---------------------]
{[---------------------|---7-----------------|---5-----------------]
{[---------------------|---------------------|---------------------]
{[---------------------|---------------------|---------------------]
{
{[10-8--7--8--8--7--5-0|--5-0-5-7--8--7--5-0-|--5-0-5-7--8--7--5-0-]
{[---------------------|---------------------|---------------------]
{[---------------------|---------------------|---------------------]
{[---------------------|---------------------|---------------------]
{[---------------------|---------------------|---------------------]
{[---------------------|---------------------|---------------------]
{
{[13-12-10-12-12-10-8-0|--8-0-8-10-12-10-8-0-|10-0-10-12-13-12-10-0]
{[---------------------|---------------------|---------------------]
{[---------------------|---------------------|---------------------]
{[---------------------|---------------------|---------------------]
{[---------------------|---------------------|---------------------]
{[---------------------|---------------------|---------------------]

^ ^ ^ ~~~~~sl. sl.
{[---------------------|---------------------|
{[---------------------|---------------------|
{[--5--5--5--5---------|-----------/--------9|
{[--------------7--5---|--6----(6)/--x/10----|
{[---------------------|---------------------|
{[---------------------|---------------------|
{
{[7-0--7--8--10-8--7--0|10-8--7--8--8--7--5-0|
{[---------------------|---------------------|
{[---------------------|---------------------|
{[---------------------|---------------------|
{[---------------------|---------------------|
{[---------------------|---------------------|
{
{[10-0-10-12-13-12-10-0|13-12-10-12-12-10-8-0|
{[---------------------|---------------------|
{[---------------------|---------------------|
{[---------------------|---------------------|
{[---------------------|---------------------|
{[---------------------|---------------------|

~~~~ sl. ~~~~~~~~ ^ ^ ^
{[---------------------|---------------------|-12-12-12-12---------]
{[---10----------------|--13------------13---|--------------15--13-]
{[----------------14---|------------14-------|---------------------]
{[----------x/14-------|---------------------|---------------------]
{[---------------------|---------------------|---------------------]
{[---------------------|---------------------|---------------------]
{
{[--5-0-5-7--8--7--5-0-|--5-0-5-7--8--7--5-0-|7-0--7--8--10-8--7--0]
{[---------------------|---------------------|---------------------]
{[---------------------|---------------------|---------------------]
{[---------------------|---------------------|---------------------]
{[---------------------|---------------------|---------------------]
{[---------------------|---------------------|---------------------]
{
{[--8-0-8-10-12-10-8-0-|--8-0-8-10-12-10-8-0-|10-0-10-12-13-12-10-0]
{[---------------------|---------------------|---------------------]
{[---------------------|---------------------|---------------------]
{[---------------------|---------------------|---------------------]
{[---------------------|---------------------|---------------------]
{[---------------------|---------------------|---------------------]

sl.
~~~~~~~ ~~~~~ sl. ~~~~~~~~
{[---------------------|---------------------|---------------------]
{[---------------------|---10----------------|--13------------13---]
{[---13------------9--|----------------14---|------------14-------]
{[-----------x/10-----|----------x/14-------|---------------------]
{[--------------------|---------------------|---------------------]
{[---------------------|---------------------|---------------------]
{
{[10-8--7--8--8--7--5-0|--5-0-5-7--8--7--5-0-|--5-0-5-7--8--7--5-0-]
{[---------------------|---------------------|---------------------]
{[---------------------|---------------------|---------------------]
{[---------------------|---------------------|---------------------]
{[---------------------|---------------------|---------------------]
{[---------------------|---------------------|---------------------]
{
{[13-12-10-12-12-10-8-0|--8-0-8-10-12-10-8-0-|10-0-10-12-13-12-10-0]
{[---------------------|---------------------|---------------------]
{[---------------------|---------------------|---------------------]
{[---------------------|---------------------|---------------------]
{[---------------------|---------------------|---------------------]
{[---------------------|---------------------|---------------------]

*4 guitars
{[---12-10-8-----------|---------------------|
{[-----------12-10-8---|---------------------|
{[---------------------|-10--9--7------------|
{[---------------------|-----------10--9--7--|
{[---------------------|---------------------|
{[---------------------|---------------------|
{
{[---8--7--5-----------|---------------------|
{[-----------8--6--5---|---------------------|
{[---------------------|--7--5--4------------|
{[---------------------|------------7--5--3--|
{[---------------------|---------------------|
{[---------------------|---------------------|
{
{[7-0--7--8--10-8--7--0|10-8--7--8--8--7--5-0|
{[---------------------|---------------------|
{[---------------------|---------------------|
{[---------------------|---------------------|
{[---------------------|---------------------|
{[---------------------|---------------------|
{
{[10-0-10-12-13-12-10-0|13-12-10-12-12-10-8-0|
{[---------------------|---------------------|
{[---------------------|---------------------|
{[---------------------|---------------------|
{[---------------------|---------------------|
{[---------------------|---------------------|

interlude b:
*2 guitars
1
sl. sl. (pre)
{[---------------------|---------------------|---------------------]
{[---------------------|--6/8------7---------|--10b---10-----8-----]
{[--2/4----2-----------|----------------7----|---------------------]
{[---------------4-----|---------------------|---------------------]
{[---------------------|---------------------|---------------------]
{[---------------------|---------------------|---------------------]
{ sl. sl. 1/2
{[---------------------|---------------------|---------------------]
{[---------------------|---------------------|---7b----7-----5-----]
{[---------------------|--7/9------7---------|---------------------]
{[--3/5----4-----------|----------------9----|---------------------]
{[---------------5-----|---------------------|---------------------]
{[---------------------|---------------------|---------------------]

~~~~~~~~~~~~~~~~ sl. sl.
{[---------------------|---------------------|---------------------]
{[---7-----------------|---------------------|--8/10-----9---------]
{[---------------------|--4/6----4-----------|----------------9----]
{[---------------------|---------------6-----|---------------------]
{[---------------------|---------------------|---------------------]
{[---------------------|---------------------|---------------------]
{ ~~~~~~~~~~~~~~~~ sl. sl.
{[---------------------|---------------------|---------------------]
{[---------------------|---------------------|---------------------]
{[---7-----------------|---------------------|--9/11-----9---------]
{[---------------------|--5/7----6-----------|----------------11---]
{[---------------------|---------------7-----|---------------------]
{[---------------------|---------------------|---------------------]

1
(pre) ~~~~~~~~~~~~~~~ sl.
{[---------------------|---------------------|---------------------]
{[--15b----15----14----|---12----------------|--6/8-----7----------]
{[---------------------|---------------------|----------------7----]
{[---------------------|---------------------|---------------------]
{[---------------------|---------------------|---------------------]
{[---------------------|---------------------|---------------------]
{ 1 ~~~~~~~~~~~~~~~~ sl.
{[---------------------|---------------------|---------------------]
{[--12b----12----10----|---9-----------------|--6/8-----7----------]
{[---------------------|---------------------|----------------7----]
{[---------------------|---------------------|---------------------]
{[---------------------|---------------------|---------------------]
{[---------------------|---------------------|---------------------]

First time[*************
~~~~~~sl.~~~~~~~
{[---------------------|---------------------|---------------------]
{[---8-----7-----------|---8-----7-----------|---------------------]
{[---------------7-----|---------------7-----|----5---------------]
{[---------------------|---------------------|--------------------]
{[---------------------|---------------------|--------------------]
{[---------------------|---------------------|---------------------]
{ ~~~~~~~~~~~~~~~~
{[---------------------|---------------------|---------------------]
{[---------------7-----|--------------7------|----8----------------]
{[---5-----7-----------|---5-----7-----------|---------------------]
{[---------------------|---------------------|---------------------]
{[---------------------|---------------------|---------------------]
{[---------------------|---------------------|---------------------]

********************************************************************

{[---------------------|---------------------|---------------------]
{[---------------------|--6/8------7---------|--10b---10-----8-----]
{[--2/4----2-----------|----------------7----|---------------------]
{[---------------4-----|---------------------|---------------------]
{[---------------------|---------------------|---------------------]
{[---------------------|---------------------|---------------------]
{ sl. sl. 1/2
{[---------------------|---------------------|---------------------]
{[---------------------|---------------------|---7b----7-----5-----]
{[---------------------|--7/9------7---------|---------------------]
{[--3/5----4-----------|----------------9----|---------------------]
{[---------------5-----|---------------------|---------------------]
{[---------------------|---------------------|---------------------]

**********************]Second time
1
~~~~~~~~~~~~~~~~ (pre)~~~~~~~~~~~sl. sl.
{[---------------------|--12b----------------|---------------------]
{[---7-----------------|--------------------|---------------------]
{[---------------------|--------------------|--2/4----2-----------]
{[---------------------|--------------------|---------------4-----]
{[---------------------|---------------------|---------------------]
{[---------------------|---------------------|---------------------]
{ ~~~~~~~~~~~~~~~~ 1~~~~~~~~~~~~~sl. sl.
{[---------------------|--13b----------------|---------------------]
{[---------------------|--------------------|---------------------]
{[---7-----------------|--------------------|---------------------]
{[---------------------|--------------------|--3/5----4-----------]
{[---------------------|---------------------|---------------5-----]
{[---------------------|---------------------|---------------------]

1
sl. (pre) ~~~~~~~~~~~~~~~~
{[---------------------|---------------------|---------------------]
{[--6/8------7---------|--10b---10-----8-----|---7-----------------]
{[----------------7----|---------------------|---------------------]
{[---------------------|---------------------|---------------------]
{[---------------------|---------------------|---------------------]
{[---------------------|---------------------|---------------------]
{ 1/2 ~~~~~~~~~~~~~~~~
{[---------------------|---------------------|---------------------]
{[---------------------|---7b----7-----5-----|---------------------]
{[--7/9------7---------|---------------------|---7-----------------]
{[----------------9----|---------------------|---------------------]
{[---------------------|---------------------|---------------------]
{[---------------------|---------------------|---------------------]

interlude c:
~~~~~~~~~~~~~~~ sl.~~~~~~~~~~~~
{[---------------------|---------------------|---------------------]
{[---------------------|---8/10--------------|-10-10-10-10--8------]
{[---5-----------------|---------------------|----------------10---]
{[---------------------|---------------------|---------------------]
{[---------------------|---------------------|---------------------]
{[---------------------|---------------------|---------------------]
{ sl.~~~~~~~~~~ ~~~~~~~~~~~~~~
{[--------/------------|---------------------|---------------------]
{[-------/-------------|---------------------|--5--5--5--5---------]
{[---2--/--------------|----5----------------|--------------7--5---]
{[---------------------|---------------------|---------------------]
{[---------------------|---------------------|---------------------]
{[---------------------|---------------------|---------------------]

sl.~~~~~~~~~~ ~~~~~~~~~~~~~~~ sl.~~~~~~~~~~~~
{[---------------------|---------------------|---------------------]
{[---------------------|---------------------|---8/10--------------]
{[---9----------------|----5----------------|---------------------]
{[--------------------|---------------------|---------------------]
{[--------------------|---------------------|---------------------]
{[---------------------|---------------------|---------------------]
{ sl.~~~~~~~~~~ ~~~~~~~~~~~~~sl. ~~~~~~~~~~~~~~
{[---------------------|---------------------|---------------------]
{[---------------------|-------------------/-|---------------------]
{[---4----------------|----2-------------/--|----5----------------]
{[--------------------|---------------------|---------------------]
{[--------------------|---------------------|---------------------]
{[---------------------|---------------------|---------------------]

sl.~~~~ sl. ~~~~ sl.
{[---------------------|---------------------|---------------------]
{[-10-10-10-10--8------|---------------------|----10---------------]
{[----------------10---|---9-------------9--|------------------14-]
{[---------------------|-----------x/10-----|------------x/14-----]
{[---------------------|--------------------|---------------------]
{[---------------------|---------------------|---------------------]
{ ~~~~sl. sl. ~~~~ sl.
{[---------------------|---------------------|---------------------]
{[--5--5--5--5---------|---------------------|----5----------------]
{[--------------7--5---|---------/--------5--|------------------9--]
{[---------------------|---6----/---x/7------|------------x/10-----]
{[---------------------|---------------------|---------------------]
{[---------------------|---------------------|---------------------]

~~~~~~ ~~~~~ sl.
{[---------------------|-12-12-12-12---------|---------------------]
{[--13-----------------|--------------15-13--|---------------------]
{[------------14--12---|---------------------|--13--------------9--]
{[---------------------|---------------------|-----------x/10------]
{[---------------------|---------------------|---------------------]
{[---------------------|---------------------|---------------------]
{ ~~~~~~ ~~~~~~ sl.
{[---------------------|---------------------|---------------------]
{[--10-----------------|-10-10-10-10--8------|---------------------]
{[------------10--9----|-----------------10--|--9---------------5--]
{[---------------------|---------------------|-----------x/7-------]
{[---------------------|---------------------|---------------------]
{[---------------------|---------------------|---------------------]

~~~~~~sl. sl. ~~~~~~ sl.
{[----------/----------|---------------------|-x/12--10--8---------]
{[--10-----/-----------|--13-----------------|-------------12-10-8-]
{[------------------14-|-------------14--12--|---------------------]
{[-------------x/14----|---------------------|---------------------]
{[---------------------|---------------------|---------------------]
{[---------------------|---------------------|---------------------]
{ ~~~~~~~sl. sl. ~~~~~~
{[----------/----------|---------------------|-x/8----7--5---------]
{[--5------/-----------|--10-----------------|--------------8-6-5--]
{[-------------------9-|-------------10---9--|---------------------]
{[-------------x/10----|---------------------|---------------------]
{[---------------------|---------------------|---------------------]
{[---------------------|---------------------|---------------------]

{[---------------------|| GOTO ###
{[---------------------||
{[-10--9--7------------||
{[-----------10--9--7--||
{[---------------------||
{[---------------------||
{
{[---------------------||
{[---------------------||
{[--7--5--4------------||
{[------------7--5--3--||
{[---------------------||
{[---------------------||


@@@
1 guitar
[---------------------|---------------------|---------------------]
[---------------------|---------------------|---------------------]
[---------------------|---7-----------------|--7-----6------7-----]
[---2-----------------|---7-----------------|--7-----6------7-----]
[---2-----------------|---5-----------------|--5-----4------5-----]
[---0-----------------|---------------------|---------------------]

[---------------------|---------------------|---------------------]
[---------------------|---------------------|---------------------]
[---9-----------------|--9-----8------9-----|---5-----------------]
[---9-----------------|--9-----8------9-----|---5-----------------]
[---7-----------------|--7-----6------7-----|---3-----------------]
[---------------------|---------------------|---------------------]

[---------------------|---------------------|------0--------------]
[---------------------|---------------------|------0--------------]
[--5-----4------5-----|---------------------|---------------------]
[--5-----4------5-----|---5-----------------|--2------------------]
[--3-----2------3-----|---5-------5---------|--2------------------]
[---------------------|---3-------2---------|--0------------------]

[---------------------|---------------------|---------------------]
[---------------------|---------------------|---------------------]
[---7-----------------|--7-----6------7-----|---9-----------------]
[---7-----------------|--7-----6------7-----|---9-----------------]
[---5-----------------|--5-----4------5-----|---7-----------------]
[---------------------|---------------------|---------------------]

[---------------------|---------------------|---------------------]
[---------------------|---------------------|---------------------]
[--9-----8------9-----|---5-----------------|--5-----4------5-----]
[--9-----8------9-----|---5-----------------|--5-----4------5-----]
[--7-----6------7-----|---3-----------------|--3-----2------3-----]
[---------------------|---------------------|---------------------]
~~~ ~~~
[---------------------|---------------------||Repeat Riff A[--------]
[---------------------|---------------------|| [--------]
[---------------------|--------9------------|| [--------]
[--5------------------|---2----9------------|| [---7-(7)]
[--5-------5----------|---2----7------------|| [---5-(5)]
[--3-(3)---2-(2)------|---0-----------------|| [--------]


END Long ain`t it?



I`m not crazy ... that`s just what the voices in my head tell me!!!

-MADMAN-




Ваше мнение



Капча