{

tf1ansiansicpg1252deff0{fonttbl{f0fnilfcharset0 Courier New;}}
viewkind4uc1pardlang1044f0fs20par
par
par
Iron Maidenpar
Fear of the dark (Live)par
par
abpar
h - hammer-onpar
^ - pull-offpar
/ - slidepar
b - bendpar
~ - vibratopar
par
par
Intro (Guitar1)par
par
E|---------------------------------|------------------------------------|-|par
B|---------------------------------|---------------5-5---------5--------|-|par
G|-7-----7-7-9-9-10-10-9-9-7-7-9-9-|-5-----5-5-7-7-----7-7-5-5---5------|-|par
D|---7-7---------------------------|---5-5------------------------------|-|par
A|---------------------------------|------------------------------------|-|par
E|---------------------------------|------------------------------------|-|par
(twice)par
par
E|-----------------------------------|----------------------------------|-|par
B|-----------------------------------|----------------------------------|-|par
G|-----------------------------------|-----------------4-4---------4----|-|par
D|-7-7-----7-7-9-9-10-10-9-9-7-7-9-9-|-5-5-----5-5-7-7-----7-7-5-5---5--|-|par
A|-----7-7---------------------------|-----5-5--------------------------|-|par
E|-----------------------------------|----------------------------------|-|par
par
E|-----------------------------------|----------------------------------|--------|par
B|-----------------------------------|----------------------------------|--------|par
G|-----------------------------------|-----------------2-2---------2----|--------|par
D|-7-7-----7-7-9-9-10-10-9-9-7-7-9-9-|-3-3-----3-3-5-5-----5-5-3-3---3--|--------|par
A|-----7-7---------------------------|-----3-3--------------------------|--------|par
E|-----------------------------------|----------------------------------|--------|par




Ваше мнение



Капча