Tab Notation:
b: bend
h: hammer-on
p: pull-off
_3_/: triad
Here it is, any comments E-mail me at [email protected]
INTRO
------------------------------------------------------------------5b-3---------------|
------------------------------------------------------------3h5p3--------------------|
----0---4-2-0-2-4-----0---4-2-0-2-4-------0---4-2-0-2-4-2----------------------------|
--2---2-------------2---2-----------2---2---2----------------------------------------|
-------------------------------------------------------------------------------------|
-------------------------------------------------------------------------------------|
-------------------------------------------------------------------------------------|
-------------------------------------------------------------------------------------|
------0---4-2-0-2-4-------0---4-2-0-2-4-----0---4-2-0-2-4----------------------------|
----2---2-----------2---2---2-------------2---2------------2-------------------------|
-------------------------------------------------------------------------------------|
-------------------------------------------------------------------------------------|
Bridge
-------------------------------------------------|| ||
-------------------------------------------------|| ||
-------------------------------------------------|| ||
-9--7--12--9--5--12--5--------5--12--11-12-11--9-||x2||
-7--5--10--7--5--10--3--3--3--3--10--9--10--9--7-|| ||
-------------------------------------------------|| ||
-------------------------------------------------------|| ||
-------------------------------------------------------|| ||
------/7times/------------/3times/---------------------|| ||
----9--------------5--------------------12-11-12-11-9--||x2||
----7--7-7-7---7-7-3-------3-3-3----3-3-10--9-10--9-7--|| ||
-------_3_/---_3_/-------_3_/----_3__/-------------|| ||
---------------------------------------------------------|| ||
---------------------------------------------------------|| ||
----/3times/------/3times/------/3times/-----------------|| ||
--9-------------5---------/ 3 --/ 3 -------------------||x2||
--7--7-7-7--7-7-3--3-3-3--3-3-5----------------------0-2-|| ||
-----_3_/--_3_/--_3_/------3--3-3-3------3-3--2-3-----|| ||
Pre-chorus
-----------------------|
-----------------------|
------5--4-2-------2---|
-5-----------5-4-5-----|
-3-------------------3-|
-----------------------|
--------------------------------------------------------------------------------|
--------------------------------------------------------------------0-1-3-5-5b--|
-----0---4-2-0-2-4-------0---4-2-0-2-0-------0---4-2-0-2-4------0-2-------------|
---2---2-----------2---2---2-----------4---2---2-----------2--------------------|
--------------------------------------------------------------------------------|
--------------------------------------------------------------------------------|
--------------------------------------------------------------------------------|
------------------------------------------------------------------------0-1-3---|
-----0---4-2-0-2-4-------0---4-2-0-2-0-------0---4-2-0-2-4------0-2-------------|
---2---2-----------2---2---2-----------4---2---2-----------2--4-----------------|
--------------------------------------------------------------------------------|
--------------------------------------------------------------------------------|
CHORUS
-------------------------------------|| ||
-------------------------------------|| ||
---/twice /---------/ twice /--|| ||
---9-9-9-9---5--7---9-9-9-9---5--2---||x2||
---7-7-7-7---3--5---7-7-7-7---3--0---|| ||
-------------------------------------|| ||
RIFF 1
----------------------------------|| ||---------------------------------|| ||
----------------------------------|| ||---------------------------------|| ||
--4--/ twice /-4--4--|| ||------/ twice /--9-9---|| ||
--2---2--4h5p4h5p4h5p4-0-2--2--2--||x2||--5---7h9p7h9p7h9p7--4-5---------||x4||
----------------------------------|| ||---------------------------------|| ||
----------------------------------|| ||---------------------------------|| ||
Solo
--14----14-16-17--16-14-12----16-12----12---------------------------------------------|
------------------------------------12----12------------------------------------11----|
---------------------------------------------11--------------12-11-9-12-11-9-12-------|
------------------------------------------------11---12-11-9--------------------------|
--------------------------------------------------------------------------------------|
--------------------------------------------------------------------------------------|
( twice )
-------------12----------------------------12---------------12---------16-16-16--12----|
----10----10---------10-9-10---------10-------12------10----------------------------12-|
-11-----11-------------------9----11----11---------11----11-------9--------------------|
---------------------------------------------------------------------------------------|
---------------------------------------------------------------------------------------|
---------------------------------------------------------------------------------------|
--12--11---------------------21--19-17-16-17-16--14-16--14h16p14----------------------|
-----------12----12----------------------------------------------14-12-10-------------|
--------------11----11----------------------------------------------------13-11-12----|
-----------------------11-------------------------------------------------------------|
--------------------------------------------------------------------------------------|
--------------------------------------------------------------------------------------|
Then: Pre-chorus,
Chorus,
Riff 1 (x1),




Ваше мнение



Капча