Iron Maiden: Drifter

Intro
|--------------------------------------|
|----3---3---3---3---3---3-------------|
|--3---2---0---------------------------|
|--------------3---2---0--------0-0----|
|---------------------------3h5--------|
|--------------------------------------|

(ROCK 'N ROOOLL!!)
|--------------------------------------|
|--------------------------------------|
|--------------------------------------|
|--7--Strum a few times---5-5-5-5-5-5--|
|--5----------------------3-2-3-2-3-2--|
|--------------------------------------|

Verse
|--------------------------------------|
|--------------------------------------|
|--------------------------------------|
|---5-----------------------7----------|
|---3-33-33-33-33-33-33-33--5----------|
|--------------------------------------|
PM .. .. .. .. .. .. ..

These are the basic riffs, this song is used to improvise so that's it!




Ваше мнение



Капча