Author/Artist: Iron Maiden
Title: Dreams of Mirrors
Album: Brave New World
Transcribed by: Adam St-Laurent
Email: [email protected]
[email protected]----------|--
-|-------------------------|-----------------------|-----------------------|--
-|----------4-5-4----------|--------4-5-4-----7----|--------4-5-4----------|--
-|-7--7------------5-------|-7--7----------5-------|-7--7----------5-------|--
-|-7--7---------------5----|-7--7------------------|-7--7-------------5----|--
-|-5--5--------------------|-5--5------------------|-5--5------------------|--
Intro (w/dist.)
-|-------------------------||----------------------------|------------------|-
-|-------------------------||--------------------5h6p5---|-5v---------------|-
-|-------------------5--4-0||--------------------------7-|------------------|-
-|-------------3--2-------0||----------------------------|------------------|-
-|-3--2--3--2--------------||----------------------------|------------------|-
-|-------------------------||----------------------------|------------------|-
(sustain the note)
-----------------------|--------------|----------------------|--------------|-
--------5v-----5h6p5---|-5--6/8v------|---------3----3h4p3---|--3v----------|-
---------------------7-|--------------|--------------------5-|--------------|-
-7--7-7----------------|--------------|--5--5-5--------------|--------------|-
-----------------------|--------------|----------------------|--------------|-
-----------------------|--------------|----------------------|--------------|-
---------------------|----------------||------------------------------------|-
--------5----5h6p5---|-5--6/8v--------||------------------------------------|-
-------------------7-|----------------||0-------9h10p9-----------7h9p7------|-
-7--7-7--------------|----------------||0--------------10--------------9----|-
---------------------|----------------||-0--0-0-----------0--0-0------------|-
---------------------|----------------||------------------------------------|-
Rhy.fig.1
----------------------------------||------------------------------------------
----------------------------------||------------------------------------------
--------5h7p5----------4h5p4-----0||------------------------------------------
--------------7--------------5---0||------------------------------------------
-0--0-0---------0--0-0------------||------------------------------------------
----------------------------------||------------------------------------------
play Rhy.fig.1 8x
-|-------------------------|--------------------------|---------------------|-
-|-------------------------|--------------------------|---------------------|-
-|0------------------------|-------7-----------7-----0|---------------------|-
-|0------3-----------3-----|----7-----7-----7-----7--0|-------3-------3-----|-
-|----3-----3-----3-----3--|-5-----------5------------|----3----3---3----3--|-
-|-1-----------1-----------|--------------------------|-1---------1---------|-
Pre-chorus 3x
-|------------------||------------------|-------------------|---------------|-
-|------------------||------------------|-------------------|---------------|-
-|------------------||0-----2---5---4---|-----0------0-----0|-----2---5---4-|-
-|------5---5---5---||0---2---2---2-----|---5------0---0---0|---2---2---2---|-
-|----5---5---5---5-||--0---------------|-3-----------------|-0-------------|-
-|--3---------------||------------------|-------3-----------|---------------|-
chorus A (clean) 3x
-|-------------------||----------------------------------------------------||-
-|-------------------||----------------------------------------------------||-
-|--------------0----||----------------------------------------------------||-
-|-----3-----0-------||----------------------------------------------------||-
-|---3---------------||----------------------------------------------------||-
-|-1-----3-----------||----------------------------------------------------||-
play Rhy.fig.1 10x
-|-------------------------------------------------------------------------||-
-|-------------------------------------------------------------------------||-
-|-------------------------------------------------------------------------||-
-|-------------------------------------------------------------------------||-
-|-------------------------------------------------------------------------||-
-|-------------------------------------------------------------------------||-
play Pre-Chorus
-|------------------|------------------|-------------------|----------------|-
-|------------------|------------------|-------------------|----------------|-
-|------------------|------------------|-------------------|----------------|-
-|-7-7-7-7-7-7-7----|-3----5----5-5-5--|--3-3-3-3--3-3-3-3-|-5-5-5-5-5-5-5-5|-
-|-7-7-7-7-7-7-7----|-3----5----5-5-5--|--3-3-3-3--3-3-3-3-|-5-5-5-5-5-5-5-5|-
-|-5-5-5-5-5-5-5----|-1----3----3-3-3--|--1-1-1-1--1-1-1-1-|-3-3-3-3-3-3-3-3|-
Chorus B play 3x then...
-|------------------|------------------|-----------------|-----------------||-
-|------------------|------------------|-----------------|-----------------||-
-|------------------|------------------|-----------------|-----------------||-
-|--7-7-7-7-7-7-7---|-3----5----5-5-5--|-3-3-3-3-3-3-3-3-|-5-5-5-5-5-5-5-5-||-
-|--7-7-7-7-7-7-7---|-3----5----5-5-5--|-3-3-3-3-3-3-3-3-|-5-5-5-5-5-5-5-5-||-
-|--5-5-5-5-5-5-5---|-1----3----3-3-3--|-1-1-1-1-1-1-1-1-|-3-3-3-3-3-3-3-3-||-
play 3x
-|-------------------------------------------------------------------------||-
-|-------------------------------------------------------------------------||-
-|-------------------------------------------------------------------------||-
-|-------------------------------------------------------------------------||-
-|-------------------------------------------------------------------------||-
-|-------------------------------------------------------------------------||-
play chorus A
-|--------------------|--------------------|-------------------------------||-
-|--------------------|--------------------|-------------------------------||-
-|--------------------|--------------------|-------------------------------||-
-|--------------------|--------------------|-------------------------------||-
-|--------------------|--------------------|-------------------------------||-
-|--------------------|--------------------|-------------------------------||-
play rhy.fig.1 10x play pre-chorus play chorus B
-|--7h8p7p5-7-7---5---5-|-7h8p7p5-7-7---5---5-|-5h6p5p3-5-5---3---3-|-5h6p5p3-
-|------------------5---|-----------------5---|-----------------3---|---------
-|0---------------------|---------------------|---------------------|---------
-|0---------------------|---------------------|---------------------|---------
-|----------------------|---------------------|---------------------|---------
-|----------------------|---------------------|---------------------|---------
Interlude
-5-5---3---3--||-----------------------------|------------------------------|-
---------3----||-----------------------------|------------------------------|-
-------------0||-----------------------------|------------------------------|-
-------------0||-7--7-7-7--7-7-7--7-7-7--7-7-|-7--7-7-7--7-7-7--7-7-7--7-7--|-
--------------||-7--7-7-7--7-7-7--7-7-7--7-7-|-7--7-7-7--7-7-7--7-7-7--7-7--|-
--------------||-5--5-5-5--5-5-5--5-5-5--5-5-|-5--5-5-5--5-5-5--5-5-5--5-5--|-
Bridge
-|-----------------------------|-----------------------------|----------------
-|-----------------------------|-----------------------------|----------------
-|-----------------------------|-----------------------------|----------------
-|-5--5-5-5--5-5-5--5-5-5--5-5-|-5--5-5-5--5-5-5--5-5-5--5-5-|-7--7-7-7--7-7--
-|-5--5-5-5--5-5-5--5-5-5--5-5-|-5--5-5-5--5-5-5--5-5-5--5-5-|-7--7-7-7--7-7--
-|-3--3-3-3--3-3-3--3-3-3--3-3-|-3--3-3-3--3-3-3--3-3-3--3-3-|-5--5-5-5--5-5--
---------------|-----------------------------|------------------------------|-
---------------|-----------------------------|------------------------------|-
---------------|-----------------------------|------------------------------|-
-7--7-7-7--7-7-|-7--7-7-7--7-7-7--7-7-7--7-7-|-3--3-3-3--3-3-3--3-3-3--3-3--|-
-7--7-7-7--7-7-|-7--7-7-7--7-7-7--7-7-7--7-7-|-3--3-3-3--3-3-3--3-3-3--3-3--|-
-5--5-5-5--5-5-|-5--5-5-5--5-5-5--5-5-5--5-5-|-1--1-1-1--1-1-1--1-1-1--1-1--|-
-|-----------------------------||-----------|--------|---------------------||-
-|-----------------------------||-----------|--------|---------------------||-
-|-----------------------------||-----------|--------|---------------------||-
-|-5--5-5-5--5-5-5--5-5-5--5-5-||-----------|--------|---------------------||-
-|-5--5-5-5--5-5-5--5-5-5--5-5-||-----------|--------|---------------------||-
-|-3--3-3-3--3-3-3--3-3-3--3-3-||-----------|--------|---------------------||-
interlude bridge interlude +4measures
-|-------|----------|-----|----------|--------|-------------|---------------|-
-|-------|----------|-----|----------|--------|-------------|---------------|-
-|0------|----------|-----|----------|--------|-------------|---------------|-
-|0-7----|-3---3-5--|-7---|-3---3-7--|--7-----|--3----3--5--|-3-3-3-3-3-3-3-|-
-|--7----|-3---3-5--|-7---|-3---3-7--|--7-----|--3----3--5--|-3-3-3-3-3-3-3-|-
-|--5----|-1---1-3--|-5---|-1---1-5--|--5-----|--1----1--3--|-1-1-1-1-1-1-1-|-
Chorus C
-|-----------------||---------------|-------------------------|--|---|--|---|-
-|-----------------||---------------|--5-5-5--3-3-3-----------|--|---|--|---|-
-|----------------0||0-2h4p2p0-2v---|----------------5-5-5--4-|--|---|--|---|-
-|-5-5-5-5-5-5-5--0||0--------------|-------------------------|--|---|--|---|-
-|-5-5-5-5-5-5-5---||---------------|-------------------------|--|---|--|---|-
-|-3-3-3-3-3-3-3---||---------------|-------------------------|--|---|--|---|-
Interlude II repeat
-|----------------|-----------------||-------------------------------------||-
-|-1h3p1p0-1v--3p1|--3v-------------||-------------------------------------||-
-|----------------|----------------0||-------------------------------------||-
-|----------------|----------------0||-------------------------------------||-
-|----------------|-----------------||-------------------------------------||-
-|----------------|-----------------||-------------------------------------||-
Guitar Solo (coming soon)
-|----------------------------------------------------------------------------
-|----------------------------------------------------------------------------
-|----------------------------------------------------------------------------
-|----------------------------------------------------------------------------
-|----------------------------------------------------------------------------
-|----------------------------------------------------------------------------




Ваше мнение



Капча