Iron Maiden
Dream of Mirrors
Tabbed by Dan ([email protected])
[Intro] ('Have you ever felt...')
G|-----4-5-4-----------4-5-4---7-----4-5-4-------------------5-4-
D|-----------5---------------5-------------5-------------3-2-----
A|-0-0---------5---0-0-----------0-0---------5---3-2-3-2---------
E|---------------------------------------------------------------
G|-----4-5-4-----------4-5-4---7-----4-5-4-------------------5-4-
D|-----------5---------------5-------------5-------------3-2-----
A|-0-0---------5---0-0-----------0-0---------5---3-2-3-2---------
E|---------------------------------------------------------------
G|---------------------------------------------------------------
D|---------------------------------------------------------------
A|-0-000-000-000-000-000-000-000-000-000-000-000-000-000-000-000-
E|---------------------------------------------------------------
G|---------------------------------------------------------------
D|---------------------------------------------------------------
A|-----------------------------------000-000-000-000-000-000-000-
E|-3-333-333-333-333-333-333-333-333-----------------------------
[Verse Part 1] ('Don't know why I feel this way...')
G|---------------------------------------------------------------
D|---------------------------------------------------------------
A|-0-000-000-000-000-000-000-000-000-000-000-000-000-000-000-000-
E|---------------------------------------------------------------
[Verse Part 2] ('All my hopes and expectations...')
G|--------------------7---7---7-----------------------7---7---7--
D|----3---3---3-----7---7---7---7-----3---3---3-----7---7---7---7
A|--3---3---3---3-5-----------------3---3---3---3-5--------------
E|1-------------------------------1------------------------------
G|--------------------7---7---7----------------------------------
D|----3---3---3-----7---7---7---7-----3---3---3-------5---5---5--
A|--3---3---3---3-5-----------------3---3---3---3---5---5---5---5
E|1-------------------------------1---------------3--------------
[Bridge] ('The Dream is true...')
G|-----2---5---4-------5-----------2---5---4-------5-------------
D|---2---2---2---2---5-------5---2---2---2---2---5-------5-------
A|-0---------------3-------5---0---------------3-------5---------
E|-----------------------3---------------------------3-----------
G|-----2---5---4-------5-----------2---5---4---------------------
D|---2---2---2---2---5-------5---2---2---2---2-----3-----5-------
A|-0---------------3-------5---0-----------------3-----5---------
E|-----------------------3---------------------1-----3-----------
[Verse Part 3] ('All my hopes and expectations...')
G|---------------------------------------------------------------
D|---------------------------------------------------------------
A|----------------5-5-5-5-5-5-5-5-----------------5-5-5-5-5-5-5-5
E|1-1-1-1-1-1-1-1-----------------1-1-1-1-1-1-1-1----------------
G|---------------------------------------------------------------
D|---------------------------------------------------------------
A|----------------5-5-5-5-5-5-5-5--------------------------------
E|1-1-1-1-1-1-1-1-----------------1-1-1-1-1-1-1-1-3-3-3-3-3-3-3-3
[Chorus] ('I only dream in black and white...')
G|---------------------------------------------------------------
D|---------------------------------------------------------------
A|---------------------------------------------------------------
E|5-5-5-5-5-5-5-5-1-1-1-3-3-3-3-3-5-5-5-5-5-5-5-5-1-1-1-3-3-3-3-3
G|---------------------------------------------------------------
D|---------------------------------------------------------------
A|---------------------------------------------------------------
E|5-5-5-5-5-5-5-5-1-1-1-3-3-3-3-3-1-1-1-1-1-1-1-1-3-3-3-3-3-3-3-3
[Interlude 1] ('Lost, in a dream of mirrors...')
G|------------------------------------------------------------------
D|------------------------------------------------------------------
A|------------------------------------------------------------------
E|-5-555-555-555-555-555-555-555-55-3-333-333-333-333-333-333-333-33
G|------------------------------------------------------------------
D|------------------------------------------------------------------
A|------------------------------------------------------------------
E|-5-555-555-555-555-555-555-555-55-1-111-111-111-111-333-333-333-33-
[Solo]
G|------------------------------------------------------------------
D|------------------------------------------------------------------
A|------------------------------------------------------------------
E|-5-555-555-555-555-555-555-555-55-1-111-111-111-111-111-111-111-11
G|------------------------------------------------------------------
D|------------------------------------------------------------------
A|-3-333-333-333-333-333-333-333-33---------------------------------
E|----------------------------------1-111-111-111-111-333-333-333-33
Structure:
==================
Intro x1
Verse Part 1 x4
Verse Part 2 x1
Bridge x1
Verse Part 1 x4
Verse Part 3 x1
Chorus x2
Bridge x1
Verse Part 1 x4
Verse Part 3 x1
Chorus x2
Interlude 1 x4
Chorus x2
Solo x6
Chorus x2
Bridge x1




Ваше мнение



Капча