Bass tab
Transcribed by G. Crisan ( [email protected] )

All textual notes refer to the tab ABOVE it. Any comments, suggestions,
or errors refering to the tab below that should be brought to my attention,
please e-mail me.

Deja Vu ( Murray / Harris )
( From the album " Somewhere in Time " )


--------------7------------------9-----------9-------------------------------
---7---7-9-10---10-----------7-9---9-7-----9---0--/9-7-5-7-5-------7---7-9-10
-7---7-------------7-8---8-7-----------8-7-------------------7---7---7-------
-----------------------8-----------------------------------------------------
(/ = slide up)

-7------------------9-----------9--------------------------------------------
---10-----------7-9--9-7------9---0-/9-7-5-7-5----4-5-7-7-7-5-4-5-4-5-4-5-4--
------7-8---8-7-----------8-7------------------7-----------------------------
----------8------------------------------------------------------------------

-----------------------------------------------------------------------------
-3-3-3-3-3-3-3-3-3-3-3-3-3-3-3-----------------------------------------------
-------------------------------3-4-4-4-4-4-4-4-4-4-4-4-4-4-4-4---6-6-6-6-6-6-
---------------------------------------------------------------6-------------
Faster

-----------------------------------------------------------------------------
--------------------------------------------------------------3-3-3-3-3-3-3-3
-6-6-6-6-6-6-6-6-6-6-6-6-6-6-8-8-8-8-6-6-6-6-6-6-6-6-6-6-6-6-----------------
-----------------------------------------------------------------------------

-----------------------------------------------------------------------------
-3-3-3-3--3-3-3--------------------------------------------------------------
----------------3-4-4-4-4-4-4-4-4-4-4-4-4-4-4-4-4---6-6-6-6-6-6-6-6-6-6-6-6-6
--------------------------------------------------6--------------------------

-----------------------------------------------------------------------------
----------------------------------------6---6-8-10-8---5---5-6-8-6---3---3-4-
-6-6-6-8-8-8-8-6-6-6-6-6-6-6-6-6-6-6--8---8----------6---6---------4---4-----
-----------------------------------------------------------------------------

-----------------------------------------------------------------------------
-6-4------------------6---6-8-10-8---5---5-6-8-6---3---3-4-6-4---------------
-------------6-4-6--8---8----------6---6---------4---4---------------6-4-6-8-
------4-3-1----------------------------------------------------4-3-1---------

-----------------------------------------------------------------------------
-----------------------------------------------------------------------------
-8-8-8-8-8-8-8-8-8-8-8-8-8-8-8-8-8-8-8-8-8-8-8-8-8-8-8-8-6-6-6-6-6-6-6-6-6-6-
-----------------------------------------------------------------------------
Lyrics enter

-----------------------------------------------------------------------------
-----------------------------------------------------------------------------
-6-6-6-6-6-6-6-6-6-6-6-6-6-6-6-6-6-6-6-6-6-6-8-8-8-8-8-8-8-8-8-8-8-8-8-8-8-8-
-----------------------------------------------------------------------------

-----------------------------------------------------------------------------
-----------------------------------------------------------------------------
-8-8-8-8-8-8-8-8-8-8-8-8-8-8-8-8-6-6-6-6-6-6-6-6-6-6-6-6-6-6-6-6-6-6-6-6-6-6-
-----------------------------------------------------------------------------

-----------------------------------------------------------------------------
-----------------------------------------------------------------------------
-6-6-6-6-6-6-6-6-6-6-4-4-4-4-4-4-4-4-6-6-6-6-6-6-6-6-8-8-8-8-8-8-8-8-8-8-8-8-
-----------------------------------------------------------------------------

-----------------------------------------------------------------------------
-----------------------------------------------------------------------------
-8-8-8-8-6-6-6-6-6-6-6-6-4-4-4-4-4-4-4-4-6-6-6-6-6-6-6-6-8-8-8-8-8-8-8-8-8-8-
-----------------------------------------------------------------------------

-----------------------------------------------------------------------------
-----------------------------------------------------------------------------
-8-8-8-8-8-8-6-6-6-6-6-6-6-6-6-6-6-6-6-6-6-6-4-4-4-4-4-4-4-4-6-6-6-6-6-6-6-6-
-----------------------------------------------------------------------------

-----------------------------------------------------------------------------
-----------------------------------------------------------------------------
-8-8-8-8-8-8-8-8-8-8-8-8-8-8-6-6-8-8-8-8-8-8-8-8-8-8-8-8-6-6-6-6-6-8-8-8-8-8-
-----------------------------------------------------------------------------
"Feel like..."

-----------------------------------------------------------------------------
-----------------------------------------------------------------------------
-8-8-8-4-4-4-4-6-6-6--8-8-8-8-8-8-8-8-8-8-8-8-8-8-8-8-3-4-4-4-4-4-4-4-4-4-4-4
-----------------------------------------------------------------------------

-----------------------------------------------------------------------------
-----------------------------------------------------------------------------
-4-4-4-4---6-6-6-6-6-6-6-6-6-6-6-6-6-6-6-6-8-8-8-8-6-6-6-6-6-6-6-6-6-6-6-6---
---------6-------------------------------------------------------------------

-----------------------------------------------------------------------------
-----------------------------------------------------------------------------
-8-8-8-8-8-8-8-8-8-8-8-8-8-8-8-3-4-4-4-4-4-4-4-4-4-4-4-4-4-4-4---6-6-6-6-6-6-
---------------------------------------------------------------6-------------

-----------------------------------------------------------------------------
---------------------------------------------------------------------------5-
-6-6-6-6-6-6-8-8-8-8-6-6-6-6--6-6-6-6-6-6-6-6-4-4-4-4-4-4-4-4-4--4-3-4-6-8---
-----------------------------------------------------------------------------

-----------------------------------------------------------------------------
-6--------------6-5---------------6-5-------------------------------5-6------
---6-8-8-8-8--8------8-6-8-8-8-8-------8-4-4-4-4-4-4-4-4--4-3-4-6-8-----8-8-8
-----------------------------------------------------------------------------

-----------------------------------------------------------------------------
-----6-5-----------------------------.--.--.--.------------------.--.--.--.--
-8-8------8-6--8-8-8-8-8-8-8-8-4-4-4-4--4--4--4--4-4-4-6---4-4-4-4--4--4--4--
-----------------------------------------------------------------------------

-----------------------------------------------------------------------------
----------------.--.--.--------6--------.--.--.--.--------6--------.--.--.--.
-4-4-4-6--8-8-8-8--8--8--6-8-8----8-8-8-8--8--8--8--6-8-8----4-4-4-4--4--4--4
-----------------------------------------------------------------------------

-----------------------------------------------------------------------------
-----------------.--.--.--.------------------.--.--.--.--------6-------------
-4-4-4-6---4-4-4-4--4--4--4--4-4-4-6---8-8-8-8--8--8--8--6-8-8----4-4-4-4-4-4
-----------------------------------------------------------------------------

---------1-0--1-0------------------------1-0--1-0------------------------1-0-
------------------1-------------------------------1--------------------------
-4-4-4-4-------------4-4-4-4-4-4-4-4-4-4-------------8-8-8-8-8-8-8-8-8-8-----
-----------------------------------------------------------------------------

-1-0------------------------1-0--1-0------------------------1-0-1-0----------
-----1-------------------------------1------------------------------1--------
--------8-8-8-8-8-8-8-8-8-8-------------4-4-4-4-4-4-4-4-4-4------------4-4-4-
-----------------------------------------------------------------------------

---------------1-0--1-0-----------------------1-0--1-0-----------------------
------------------------1------------------------------1---------------------
-4-4-4-4-4-4-4------------8-8-8-8-8-8-8-8-8-8-------------8-8-8-8-8-8-8-8-8-8
-----------------------------------------------------------------------------

-1-0--1-0------------------------1-0--1-0-----------------------1-0--1-0-----
----------1-------------------------------1------------------------------1---
-------------4-4-4-4-4-4-4-4-4-4------------4-4-4-4-4-4-4-4-4-4--------------
-----------------------------------------------------------------------------

---------------------1-0--1-0-------------------------1-0--1-0---------------
-------------------------------1-------------------------------1-------6---6-
-8-8-8-8-8-8-8-8-8-8--------------8-8-8-8-8-8-8-8-8-8----------------8---8---
-----------------------------------------------------------------------------

-----------------------------------------------------------------------------
-8-10----5---5-6-8---3---3-4-6------------------6---6-8-10---5---5-6-8----3--
-------6---6-------4---4---------------6-4-6--8---8--------6---6--------4---4
--------------------------------4-3-1----------------------------------------

-----------------------------------------------------------------------------
-3-4-6-----------------------------------------------------------------------
---------------6-4-6--8-8-8-8-8-8-8-8-8-8-8-8-8-8-8-8-8-8-8-8-8-8-8-8-8-8-8-8
--------4-3-1----------------------------------------------------------------

-----------------------------------------------------------------------------
-----------------------------------------------------------------------------
-8-8-8-8-6-6-6-6-6-6-6-6-6-6-6-6-6-6-6-6-6-6-6-6-6-6-6-6-6-6-6-6-6-6-6-6-8-8-
-----------------------------------------------------------------------------

-----------------------------------------------------------------------------
-----------------------------------------------------------------------------
-8-8-8-8-8-8-8-8-8-8-8-8-8-8-8-8-8-8-8-8-8-8-8-8-8-8-8-8-8-6-6-6-6-6-6-6-6-6-
-----------------------------------------------------------------------------

-----------------------------------------------------------------------------
-----------------------------------------------------------------------------
-6-6-6-6-6-6-6-6-6-6-6-6-6-6-6-6-6-6-6-6-6-6-6-4-4-4-4-4-4-4-4-6-6-6-6-6-6-6-
-----------------------------------------------------------------------------

-----------------------------------------------------------------------------
-----------------------------------------------------------------------------
-6-8-8-8-8-8-8-8-8-8-8-8-8-8-8-8-8-4-4-4-4-4-4-4-4-6-6-6-6-6-6-6-6-8-8-8-8-8-
-----------------------------------------------------------------------------

-----------------------------------------------------------------------------
-----------------------------------------------------------------------------
-8-8-8-6-6-6-6-6-6-6-6-4-4-4-4-4-4-4-4-6-6-6-6-6-6-6-6-8-8-8-8-8-8-8-8-8-8-8-
-----------------------------------------------------------------------------

-----------------------------------------------------------------------------
-----------------------------------------------------------------------------
-8-8-8-8-8-6-6-6-6-6-6-6-6-6-6-6-6-6-6-6-6-4-4-4-4-4-4-4-4-6-6-6-6-6-6-6-6-8-
-----------------------------------------------------------------------------

-----------------------------------------------------------------------------
-----------------------------------------------------------------------------
-8-8-8-8-8-8-8-8-8-8-8-8-6-6-8-8-8-8-8-8-8-8-8-8-8-8-6-6-6-6-6-8-8-8-8-8-8-8-
-----------------------------------------------------------------------------

-----------------------------------------------------------------------------
-----------------------------------------------------------------------------
-8-6-6-6-6-6-6-6-6-8-8-8-8-8-8-8-8-8-8-8-8-6-6-6-6-6-8-8-8-8-8-8-8-8-4-4-4-4-
-----------------------------------------------------------------------------

-----------------------------------------------------------------------------
-----------------------------------------------------------------------------
-6-6-6-6---8-8-8-8-8-8-8-8-8-8-8-8-8-8-8-3-4-4-4-4-4-4-4-4-4-4-4-4-4-4-4-----
-------------------------------------------------------------------------6---

-----------------------------------------------------------------------------
-----------------------------------------------------------------------------
-6-6-6-6-6-6-6-6-6-6-6-6-6-6-6-6-8-8-8-8-6-6-6-6-6-6-6-6-6-6-6-6-8-8-8-8-8-8-
-----------------------------------------------------------------------------

-----------------------------------------------------------------------------
-----------------------------------------------------------------------------
-8-8-8-8-8-8-8-8-8-3-4-4-4-4-4-4-4-4-4-4-4-4-4-4-4----6-6-6-6-6-6-6-6-6-6-6-6
----------------------------------------------------6------------------------

-----------------------------------------------------------------------------
------------------------------------------------------------6---6-8-10---5---
-6-6-6-6-8-8-8-8-6-6-6-6-8-8-8-8-6-6-6-6-6-6-6-6-6-6-6-6--8---8--------6---6-
-----------------------------------------------------------------------------

-----------------------------------------------------------------------------
-5-6-8------3---3-4-6------------------6---6-8-10---5---5-6-8----3---3-4-6---
-------4--4---4---------------6-4-6--8---8--------6---6--------4---4---------
-----------------------4-3-1-------------------------------------------------

---------------------||
-------------->------||
--------6-4-6-8------||
-4-3-1---------------||
(> = accent)




Ваше мнение



Капча