intro: guitar 1 clean guitar (0:00) x4

e ------------------------------------------------------------------|
B ----------------------------------------------------8-------------|
G ----8b9--8b9--7-5-7-7-5---------8b9--8b9--7-5-7-7/9---9-7/9-------|
D -------------------------7-5---------------------------------7----|
A ------------------------------------------------------------------|
E ------------------------------------------------------------------|

(0:28)

e ------------------------------------------------------------------|
B -----------12-13-12------------------12-13-12------------------12-|
G -14--12-14----------14-12-14---12-14----------14-12-14---12-14----|
D ------------------------------------------------------------------|
A ------------------------------------------------------------------|
E ------------------------------------------------------------------|

e ------------------------------------------------------------------|
B --13-12--------15----13-12-----------------12-13-12---------------|
G --------14-12---------------12-14----12-14----------14-12-14------|
D ------------------------------------------------------------------|
A ------------------------------------------------------------------|
E ------------------------------------------------------------------|

e ------------------------------|
B --------12-13-12--------------|
G --12-14----------14-12-14-----|
D ------------------------------|
A ------------------------------|
E ------------------------------|

(1:09)

e ------------------------------------------------------------------|
B ---15--13-12------15--13-12------15--13-12--------12----10--------|
G -------------14-------------14-------------14--12----12-----9-----|
D ------------------------------------------------------------------|
A ------------------------------------------------------------------|
E ------------------------------------------------------------------|

guitar 2 (0:00) this part is played during the intro

e ------------------------------------------------------------------|
B ------------------------------------------------------------------|
G -------9-----9-----9----9---------7----7----7----7----------------|
D ----7-----7-----7-----7--------5-----5----5----5---------7-----7--|
A ------------------------------------------------------5-----5-----|
E ------------------------------------------------------------------|

e -------------------------------------------------|
B -------------------------------------------------|
G -------------------------------------------------|
D ------7-----7-------10-----10-----10----10-------|
A ---5-----5-------8------8------8------8----------|
E -------------------------------------------------|

guitar 1 (2:19) w/distortion

e ------------------------------------------------------------------|
B ------------------------------------------------------------------|
G ------------------------------------------------------------------|
D ----9------------5----------9------------5---------9------------5-|
A ----7--7777777---3---5------7--7777777---3--5------7--7777777---3-|
E ---------------------3----------------------3---------------------|

e ---------------------------------|
B ---------------------------------|
G ---------------------------------|
D ----------------------5---7------|
A ---5------7-----------3---5------|
E ---3------5--5555555-------------|

(2:31)

e ------------------------------------------------------------------|
B ------------------------------------------------------------------|
G ------------------------------------------------------------------|
D --7-7-x-x-x-7-7-x-x-x-7-7-x-x-x-7-7-x-x-x-7-7-x-x-x-7-7-x-x-x-7-7-|
A --7-7-x-x-x-7-7-x-x-x-7-7-x-x-x-7-7-x-x-x-7-7-x-x-x-7-7-x-x-x-7-7-|
E --5-5-x-x-x-5-5-x-x-x-5-5-x-x-x-5-5-x-x-x-5-5-x-x-x-5-5-x-x-x-5-5-|

e ------------------------------------------------------------------|
B ------------------------------------------------------------------|
G ------------------------------------------------------------------|
D --x-x-x-7-7--8--11--7-7-x-x-x-7-7-x-x-x-7-7-x-x-x-7--8-11-8-6-6-4-|
A --x-x-x-7-7--6--9---7-7-x-x-x-7-7-x-x-x-7-7-x-x-x-7--6--9-6-4-4-2-|
E --x-x-x-5-5---------5-5-x-x-x-5-5-x-x-x-5-5-x-x-x-5---------------|

riff 1 (3:35) x2

e --------------------------------------------------------------|
B --10--12-13-12-10--------10-12-13-12-10-------10-12-13-12-10--|
G ------------------12/14-----------------12/14-----------------|
D --------------------------------------------------------------|
A --------------------------------------------------------------|
E --------------------------------------------------------------|

(3:47) & (4:04)
e ------------------------ ---------------------------------------|
B ----------12-13-10------ ---10-12-13-12-10-------12-13-10-------|
G ---12/14---------------- ------------------12/14----------------|
D ------------------------ ---------------------------------------|
A ------------------------ ---------------------------------------|
E ------------------------ ---------------------------------------|

riff 2 (4:08) x2

e ---------------------------------------------------------|
B -------------------------------9-8-8---------------------|
G ---9--10-11-12-9--11-10-9---7--------8--9-10-8-----------|
D ---------------------------------------------------------|
A ---------------------------------------------------------|
E ---------------------------------------------------------|

riff 3 (6:58) x4

e --------------------------------4--------------------------------|
B --2-4-5-4--2--2----2--4-5-4-2-2-----2--4-5-4-2-2---2-4-5-4-2-2-0-|
G -----------------------------------------------------------------|
D -----------------------------------------------------------------|
A -----------------------------------------------------------------|
E -----------------------------------------------------------------|

riff 4 (7:23) x4

e -12-0-0--7-0-0--8-0-0--5-0-0--7-0-0--3-0-0--5-0-0--2-0-0--3-0-0---|
B ------------------------------------------------------------------|
G ------------------------------------------------------------------|
D ------------------------------------------------------------------|
A ------------------------------------------------------------------|
E ------------------------------------------------------------------|

e ---5-0-0----3--2--0-----------------------------------------------|
B ------------------------------------------------------------------|
G ------------------------------------------------------------------|
D ------------------------------------------------------------------|
A ------------------------------------------------------------------|
E ------------------------------------------------------------------|

key:

/ slide up
b bend
x palm mute
[email protected]




Ваше мнение



Капча