-----2-----2-------0-----0--------------------------------------2-----2------
-0-0---0-0---0-0-0---0-0----0-0--4--0-0-0-0-0-0-0-0-0-0-0-0-0-0---0-0---0-0-0
---x--------------------------x---------x---x-x---x-x-x-x-x-------x-----x---x
-----------------------------------------------------------------------------
( x = dead note)

-0-----0------------------------------------2-----2-------0-----0------------
---0-0---0-0-4--0-0-0-0-0-0-0-0-0-0-0-0-0-0---0-0---0-0-0---0-0---0-0-4-0-0-0
-x---x-x-----x----x---x-x-x-x-x---x-x-x---x-----x-------------x-----x---x-x-x
-----------------------------------------------------------------------------
Rhythm guitar enters

-----------------------2-----2-------0-----0---------------------------------
-0-0-0-0-0-0-0-0-0-0-0---0-0---0-0-0---0-0---0-0-4-0-0-0-0-0-0-0-0-0-0-0-0-0-
-x-x-x-x-x---x-x---------x-x-----------x-------------x-x-x-x-x-x-x-x-x---x-x-
-----------------------------------------------------------------------------

-2-----2-------0-----0-----------------------------------2-----2-------0----0
---0-0---0-0-0---0-0---0-0-4-0-0-0-0-0-0-0-0-0-0-0-0-0-0---0-0---0-0-0---0-0-
---x-x-------x-x---x-----x-x---x-x---x-x-x-x-x-x-x-x---x-----x-x---x-x-x---xx
-----------------------------------------------------------------------------
Lead Guitar enters

-----------------------------------------------------------------------------
-0-0-0-4-0-0-0-0-0-0--5-5-5-5-4-0------------5-5-5-5-4-0------------5-5-5-5-4
-x---x-x---x---x-x----------------3-3-3-3-3--------------3-3-3-3-3-----------
-----------------------------------------------------------------------------

-------------------------------------------2-----2-------0-----0-------------
-0------------5-5-5-5-4-0--------------0-0---0-0---0-0-0---0-0---0-0-4-0-0-0-
---5-5-5-5-5--------------5-5-5-5-5------------------------------------------
-----------------------------------------------------------------------------

-----------------------2-----2------0----0-----------------------------------
-0-0-0-0-0-0-0-0-0-0-0---0-0---0-0-0--0-0--0-0-4-0-0-0-0-0--5-5-5-5-4-0------
------------------------------------------------------------------------3-3-3
-----------------------------------------------------------------------------

-----------------------------------------------------------------------------
------5-5-5-5-4-0-------------5-5-5-5-4-0------------5-5-5-5-4-0-------------
-3-3---------------3-3-3-3-3---------------5-5-5-5-5-------------5-5-5-5-5---
-----------------------------------------------------------------------------

-----------------------------------------------------------------------------
-0-----0-----0---0-----0-----0---0-------------------------------------------
---5-5---5-5---5---5-5---5-5---5---3-3-3--3-3-3--3-3--3-3-3--3-3-3--3-3------
-------------------------------------------------------------------------3-3-
Vocals enter *

-----------------------------------------------------------------------------
---------------------------------------------------------------------0-----0-
-----------------------------------1-1-1-1-1-1-1-1--3-3-3-3-3-3-3-3----5-5---
-3--3-3-3--3-3--3-3-3--3-3-3--3-3--------------------------------------------

-----------------------------------------------------------------------------
------0---0-----0-----0---0--------------------------------------------------
--5-5---5---5-5---5-5---5----3-3-3--3-3-3--3-3--3-3-3--3-3-3--3-3------------
-------------------------------------------------------------------3-3-3--3-3

--------------------------------------------------------------2-----2-----2--
----------------------------------------------------------------0-0---0-0----
----------------------------1-1-1-1-1-1-1-1--3-3-3-3-3-3-3-3-----------------
-3--3-3--3-3-3--3-3-3--3-3---------------------------------------------------

---3-----3-----3---0-----0-----0---2-----2-----2---2-----2-----2---3-----3---
-0---0-0---0-0---0---0-0---0-0---0---0-0---0-0---0---0-0---0-0---0---0-0---0-
-----------------------------------------------------------------------------
-----------------------------------------------------------------------------

---3---0-----0-----0-----0---0--0--------------------------------------------
-0---0---0-0---0-0---0-0---0---0--0--0-----0-----0---0-----0-----0---0-------
---------------------------------------5-5---5-5---5---5-5---5-5---5---3-3-3-
-----------------------------------------------------------------------------

-----------------------------------------------------------------------------
-----------------------------------------------------------------------------
-3-3-3--3-3--3-3-3--3-3-3--3-3----------------------------------------1-1-1-1
--------------------------------3-3-3--3-3-3--3-3--3-3-3--3-3-3--3-3---------

-----------------------------------------------------------------------------
---------------------------0-----0-----0---0----0----0---0-------------------
-1-1-1-1--3-3-3-3-3-3-3-3----5-5---5-5---5---5-5--5-5--5----3-3-3--3-3-3--3-3
-----------------------------------------------------------------------------

-----------------------------------------------------------------------------
-----------------------------------------------------------------------------
-3-3-3--3-3-3--3-3----------------------------------------1-1-1-1-1-1-1-1--3-
--------------------3-3-3--3-3-3--3-3--3-3-3--3-3-3--3-3---------------------

----------------2-----2-----2---3-----3----3---0-----0-----0---2-----2-----2-
------------------0-0---0-0---0---0-0---0-0--0---0-0---0-0---0---0-0---0-0---
-3-3-3-3-3-3-3---------------------------------------------------------------
-----------------------------------------------------------------------------

---3-----3-----3---0-----0-----0-----0---0---0-----0-----0-----0---1-----1---
-0---0-0---0-0---0---0-0---0-0---0-0---0---0---0-----0-0---0-0---0---0-0---0-
-----------------------------------------------------------------------------
-----------------------------------------------------------------------------

---1--------------------0-----0-----0---0-----0-----0---1-----1-----1--------
-0---0--3-0-0-3-0-0-3-0---0-0---0-0---0---0-0---0-0---0---0-0---0-0---0--3-0-
-----------------------------------------------------------------------------
-----------------------------------------------------------------------------

-----------------------------------------------------------------------------
-0--3-0-0--3-0-0--3-0--3-0--3-0----------------------------------------------
--------------------------------5-5-5--5-5-5--5-5-5-555--3-3-3--3-3-3--3-3-3-
-----------------------------------------------------------------------------
"There`s a time to live..."

-----------------------------------------------------------------------------
-----------------------.-.-.-.-----------------------------------------------
555--5-5-5--5-5-5--5-5-5-3-5-5--5-5-5--5-5-5--5-5-5-555--3-3-3--3-3-3--3-3-3-
-----------------------------------------------------------------------------

-----------------------------------------------------------------------------
-------------------------.-.--.-.--------------------------------------------
555--5-5-5--5-5-5--5-5-5-3-3--5-5--5-5-5--5-5-5--5-5-5-555--3-3-3--3-3-3--3-3
-----------------------------------------------------------------------------

-----------------------------------------------------------------------------
-----------------------------.-.--.-.----------------------------------------
-3-555--5-5-5--5-5-5--5-5-5--3-3--5-5--5-5-5--5-5-5--5-5-5-555--3-3-3--3-3-3-
-----------------------------------------------------------------------------

-----------------------------------------------|
-------------------------------------.-.-------|
-3-3-3-555--5-5-5--5-5-5--5-5-5-555--3-3-2-0-3-|
-----------------------------------------------|

-----5-----5-------3-----3-----2-----------------------------5-----5-------3-
-3-3---3-3---3-3-3---3-3---3-3---3-3-3-3-3-3-3-3-3-3-3-3-3-3---3-3---3-3-3---
-----------------------------------------------------------------------------
-----------------------------------------------------------------------------
Guitar Solo

-----3-----2-----------------------------5-----5-------3-----3----2----------
-3-3---3-3---3-3-3-3-3-3-3-3-3-3-3-3-3-3---3-3---3-3-3---3-3---3-3--3-3-3-3-3
-----------------------------------------------------------------------------
-----------------------------------------------------------------------------

-------------------5-----5--------3-----3-----2------------------3-3-3-3-2-0-
-3-3-3-3-3-3-3-3-3---3-3---3-3-3----3-3---3-3---3-3-3-3-3-3-3-3--------------
-----------------------------------------------------------------------------
-----------------------------------------------------------------------------

----------3-3-3-3-2-0------------3-3-3-3-2-0------------3-3-3-3-2-0----------
0-0-0-0-0-------------0-0-0-0-0--------------2-2-2-2-2--------------2-2-2-2-2
-----------------------------------------------------------------------------
-----------------------------------------------------------------------------
End solo

-----------------------------------------------------------------------------
-0-----0-----0---0-----0-----0---0-------------------------------------------
---5-5---5-5---5---5-5---5-5---5---3-3-3--3-3-3--3-3--3-3-3--3-3-3--3-3------
-------------------------------------------------------------------------3-3-

-----------------------------------------------------------------------------
---------------------------------------------------------------------0-----0-
-----------------------------------1-1-1-1-1-1-1-1--3-3-3-3-3-3-3-3----5-5---
-3--3-3-3--3-3--3-3-3--3-3-3--3-3--------------------------------------------

-----------------------------------------------------------------------------
------0---0-----0-----0---0--------------------------------------------------
--5-5---5---5-5---5-5---5----3-3-3--3-3-3--3-3--3-3-3--3-3-3--3-3------------
-------------------------------------------------------------------3-3-3--3-3

--------------------------------------------------------------2-----2-----2--
----------------------------------------------------------------0-0---0-0----
----------------------------1-1-1-1-1-1-1-1--3-3-3-3-3-3-3-3-----------------
-3--3-3--3-3-3--3-3-3--3-3---------------------------------------------------

---3-----3-----3---0-----0-----0---2-----2-----2---2-----2-----2---3-----3---
-0---0-0---0-0---0---0-0---0-0---0---0-0---0-0---0---0-0---0-0---0---0-0---0-
-----------------------------------------------------------------------------
-----------------------------------------------------------------------------

---3---0-----0-----0-----0---0---0----0-----0-----0---1-----1-----1----------
-0---0---0-0---0-0---0-0---0---0---0----0-0---0-0---0---0-0---0-0---0--3-0-0-
-----------------------------------------------------------------------------
-----------------------------------------------------------------------------

-------------0-----0-----0---1-----1-----1-----------------------------------
-3-0-0--3-0----0-0---0-0---0---0-0---0-0---0--3-0-0--3-0-0--3-0--3-0--3-0----
-----------------------------------------------------------------------------
-----------------------------------------------------------------------------

-----------------------------------------------------------------------------
--------------------------------------------------------------------.-.-.-.--
5-5-5--5-5-5--5-5-5-555--3-3-3--3-3-3--3-3-3-555--5-5-5--5-5-5--5-5-5-3-5-5--
-----------------------------------------------------------------------------

-----------------------------------------------------------------------------
----------------------------------------------------------------------.-.--.-
5-5-5--5-5-5--5-5-5-555--3-3-3--3-3-3--3-3-3-555--5-5-5--5-5-5--5-5-5-3-3--5-
-----------------------------------------------------------------------------

-----------------------------------------------------------------------------
.-------------------------------------------------------------------------.-.
5--3-3-3--3-3-3--3-3-3-333--1-1-1--1-1-1--1-1-1-333--3-3-3--3-3-3--3-3-3--1-1
-----------------------------------------------------------------------------

-----------------------------------------------------------------------------
.-.--------------------------------------------------------------------------
3-3---3-3-3--3-3-3--3-3-3-333--1-1-1--1-1-1--1-1-1-333--3-3-3--3-3-3--3-3-3--
-----------------------------------------------------------------------------

-----------------|
------.-.--------|
-333--1-1-0---1--|
------------1----|


-----2-----2-------0-----0--------------------------------------2-----2------
-0-0---0-0---0-0-0---0-0----0-0--4--0-0-0-0-0-0-0-0-0-0-0-0-0-0---0-0---0-0-0
-----------------------------------------------------------------------------
-----------------------------------------------------------------------------
Outro

-0-----0---------------------------------------------------------------------
---0-0---0-0-4--0-0-0-0-0-0-0-0-0-0-0-0-0-0--5-5-5-5-4-0------------5-5-5-5-4
---------------------------------------------------------3-3-3-3-3-----------
-----------------------------------------------------------------------------

-----------------------------------------------------------------------------
-0------------5-5-5-5-4-0------------5-5-5-5-4-0--5-4-0-5-4-0-5-4-0-5-4-0-5-4
---3-3-3-3-3--------------5-5-5-5-5------------------------------------------
-----------------------------------------------------------------------------

---.-.-.--|
0--0-0-0--|
----------|
----------|




Ваше мнение



Капча