-------9----------------------------------------------------------9----------
------9----9----5----0--5h4h5h4--------------3-------5----------9---9---5----
--7--7--------------------------5---5-5----3---3---5---5---------------------
--0--------------------------------------------------------0-----------------
Intro

-------------------------------------------9---------------------------------
-0--5h4h5h4-------------3------5----------9----9----5----0---5h4h5h4---------
------------5---5-5---3---3--5---5-------7---------------------------5----5-5
------------------------------------0----------------------------------------

------------------------9----------------------------------------------------
----3-------5----------9---9----5---0---5h4h5h4--------------3




Ваше мнение



Капча