Iron Maiden
Caught somewhere in time
tuning: standard(e a d g b e)
There are really three guitars in the opening solo
gtr. 1 (low)
---------------------------------------|
-----------10b12---10-7-8-10-8-7-8-----|
---------------------------------------|
---------------------------------------|
---------------------------------------|
---------------------------------------|
---------------------------------------|
---------10b12---10-7-8-10-8-7---------|
-------------------------------9-------|
---------------------------------------|
---------------------------------------|
---------------------------------------|
---------------------------------------|
---------10b12---10-7-8-10-8-7-8-------|
---------------------------------------|
---------------------------------------|
---------------------------------------|
---------------------------------------|
---------------------------------------|
---------10b12---10--10b12--7--8--10---|
---------------------------------------|
---------------------------------------|
---------------------------------------|
---------------------------------------|
gtr.2 (rythm)
---------------------------------------|
--------15b17---15-12-13-15-13-12-13---|
---------------------------------------|
---------------------------------------|
---------------------------------------|
---------------------------------------|
---------------------------------------|
---------15b17---15-12-13-15-13-12-----|
-----------------------------------14--|
---------------------------------------|
---------------------------------------|
---------------------------------------|
---------------------------------------|
-------15b17---15-12-13-15-13-12-13----|
---------------------------------------|
---------------------------------------|
---------------------------------------|
---------------------------------------|
---------------------------------------|
--------15b17---15--15b17--15-12-13-15-|
---------------------------------------|
---------------------------------------|
---------------------------------------|
---------------------------------------|
gtr.3 (lead)
-----17b19--17-14-15-1715-14-15--------|
---------------------------------------|
---------------------------------------|
---------------------------------------|
---------------------------------------|
---------------------------------------|
-----17b19--17-14-15-17-15-14----------|
------------------------------15-------|
---------------------------------------|
---------------------------------------|
---------------------------------------|
---------------------------------------|
-----17b19--17-14-15-17-15-14-15-------|
---------------------------------------|
---------------------------------------|
---------------------------------------|
---------------------------------------|
---------------------------------------|
-----17b19--17--17b19-17--14--15-17----|
---------------------------------------|
---------------------------------------|
---------------------------------------|
---------------------------------------|
---------------------------------------|
gtr.1 and 2 are played together once then
the tempo picks up and they both play a second time
then gtr.3 comes in for one more go around with all three of them
I'll have more soon!!!!
so have some fun with what i got




Ваше мнение



Капча