Bring Your Daughter to the Slaughter Solo tab
from the album-no prayer for the dying.
performed by iron maiden
written by bruce dickinson.
tabbed by yours truly-Jonathan Howard
lines may appear screwed up besause im kak at writing tab up on the computer.
this solo is a very difficult one because most of the notes are picked as oposed to using hammering on and
off. focus on practising it very slowly and increse youre speed with a metronome. please feel free to add
tab to youre work and around the internet but please put my name with it because it took months to work out.
have fun
on the guitar Janik Gers
e|-------------------------------------------------------------|
B|-------------------------------------------------------------|
G|--7------7-5-7-5/4--------------------------------------12---|
D|--------------------------7p5h7p5-----5-----7-----------12---|
A|-----------------------X-----------7--------------/14--------|
E|---------------------X---------------------------------------|
w/bar rake pick
across strings
e|----------------------------12--12------12--12------12--12------|
B|-------12---12---X----------12--12------12--12------12--12------|
G|--X----12---12---X----14b-----------14b---------14b---------14--|b
D|--X----12---12---X----------------------------------------------|
A|----------------------------------------------------------------|
E|----------------------------------------------------------------|
e|-12--12-----12--12--12-------12-15p12-12---12----12-12-15-----------|
B|-12--12-----12--12-----12h13-------------13---13-----------13-12-12-|
G|--------14b---------------------------------------------------------|
D|--------------------------------------------------------------------|
A|--------------------------------------------------------------------|
E|--------------------------------------------------------------------|
e|-------12-15-12-------------12-14-15-17-15p14-12--------------------|
B|-13-13----------13p12h13h15----------------------15-14-12-----------|
G|-----------------------------------------------------------15p14-12-|
D|--------------------------------------------------------------------|
A|--------------------------------------------------------------------|
E|--------------------------------------------------------------------|
e|--------------------------------------------------------------------|
B|-----------12------12------------12-15-12----12----12--13p12-----12-|
G|-12----14b----14b-----14------14----------14----14------------14----|
D|---14---------------------------------------------------------------|
A|--------------------------------------------------------------------|
E|--------------------------------------------------------------------|
e|-----------------------------------------------------------------|
B|------12p15-12---12----12-13-12----------------------------------|
G|-14-----------14----14----------14--12h14p12----12---16p12-14p12-|
D|----------------------------------------------14-----------------|
A|-----------------------------------------------------------------|
E|-----------------------------------------------------------------|
e|---------------------------------------------------------------------|
B|---------------------------------------------------------------------|
G|----12-12-12-16p12-14p12----12-12-12--16p14p12---12-12--16p14p12--15-|
D|-14----------------------14--------------------14--------------------|
A|---------------------------------------------------------------------|
E|---------------------------------------------------------------------|
e|-----------------12-12-15p12-------------12-15p12----------12-15p12-|
B|-------12-12-13--------------13-13-12-13-----------13-12-13---------|
G|---12v--------------------------------------------------------------|
D|-14-----------------------------------------------------------------|
A|--------------------------------------------------------------------|
E|--------------------------------------------------------------------|
e|--------------14-17------------14h17p14---------15b-----12--------|
B|-13-12-13/-----------14h15-15------------14-15--------------15p14-|
G|------------------------------------------------------------------|
D|------------------------------------------------------------------|
A|------------------------------------------------------------------|
E|------------------------------------------------------------------|
e|------------------------------------------------------------|
B|-12-12------------------------------------------------------|
G|-------15-14-12-14b1/4--(14)/---7p0-5p0-4p0-----------------|
D|---------------------------------------------7p0-5p0-4p0----|
A|------------------------------------------------------------|
E|------------------------------------------------------------|
e|---------------------------------------------------------|
B|---------------------------------------------------------|
G|---------------------------------------------------------|
D|-------------------------2-------------------------------|
A|-7p0-5p0-4p0-------------2-------------------------------|
E|-------------3b1/4-------0-------------------------------|
any requests or comments please feel free to e-mail me at
[email protected]




Ваше мнение



Капча