Tab explanations
-----------------------------------------------------------------------------
> Accent | / Slide up | w whole note
. Staccatto | Slide down | h half note
h Hammer-on/ pull off | : Repeat | q quarter note
† Harmonic | ~ slight bend | e eigth note
[] tied notes | + dotted note | s sixteenth note
r rest | | t thirtysecond note
-----------------------------------------------------------------------------


2 Minutes to Midnight ( Smith/Dickinson )
( From the album " Powerslave " )

_ w w w h e e e e q h+ w w e e e e e e e e q h+ w w h
|---|---|---|-------------|------|---|---|-----------------|------|---|---|-
4|---|---|---|-------------|------|---|---|--------5--------|------|---|---|-
4|-r-|-r-|-r-|-r--r--0-0-0-|-0--r-|-r-|-r-|-r-5-7-5---7-5-7-|-0--r-|-r-|-r-|r
_|---|---|---|-------------|------|---|---|-----------------|------|---|---|-

e e e e q h+ w w q e e e e e e e e e e e e e e e e e e e e e e
--------|-----|---|---|----------------|------------------|-----------------|
--------|-----|---|---|----0-1-2-0-----|------------------|-----------------|
r-0-5-7-|-0-r-|-r-|-r-|-0----------3-2-|-0-0-0-0--0-0-0-0-|-0-0-0-0--0-0-0-0|
--------|-----|---|---|----------------|------------------|-----------------|

e e e e e e e e e e e e e e e e e e e e e e e e e e e e e e e e
------------------|-----------------|------------------|--------------------|
------------------|-----------------|------------------|--------------------|
-0-0-0-0--0-0-0-0-|-r-----0-2-------|-0-0-0-0--0-0-0-0-|--0-0-0-0--0-0-0-0--|
------------------|---0-3-----0-5-3-|------------------|--------------------|

e e e e e e e e e e e e e e e e e e e e e e e e e e e e e e e e
------------------|------------------|--------------------|-----------------|
------------------|------------------|--------------------|-----------------|
-0-0-0-0--0-0-0-0-|--r-----0-2-------|---0-0-0-0--0-0-0-0-|-0-0-0-0--0-0-0-0|
------------------|----0-3-----0-5-3-|--------------------|-----------------|

e e e e e e e e e e e e e e e e e e e e e e e e e e e e e e e e
------------------|-------------------|------------------|------------------|
------------------|-------------------|------------------|------------------|
-0-0-0-0--0-0-0-0-|-------0--2--------|-0-0-0-0--0-0-0-0-|--0-0-0-0--0-0-0-0|
------------------|-5-0-3------0-5-3--|------------------|------------------|

e e e e e e e e e e e e e e e e e e e e e e e e e e e e e e e e
-------------------|------------------|-------------------|-----------------|
-------------------|------------0-2---|-------------------|-----------------|
-0-0-0-0--0-0-0-0--|-------0--2-------|--0-0-0-0--0-0-0-0-|-0-0-0-0--0-0-0-3|
-------------------|-r-0-3----------0-|-------------------|-----------------|

e e e e e e e e q e e e e e e e e e e e e e e e e e e e e e e
------------------|------------------|------------------|-------------------|
-0-0-0-0--0-0-0-0-|-3--5-3-----------|------------------|-------------------|
------------------|---------3-3-5-3--|-0-0-0-0--0-0-0-0-|--0-0-0-0--0-0-3-4-|
------------------|------------------|------------------|-------------------|

e e e e e e e e e e e e e e e e q e e q e e q e e q e e
------------------|------------------||-----------------|------------------||
-0-0-0-0--0-0-0-0-|-3-0-3-0--3-0-----||.----------------|-----------------.||
------------------|--------------3-2-||.-0--0-0--0--0-0-|--0--0-0--0--0-0-.||
------------------|------------------||-----------------|------------------||
Half time feel

q e e q e e q e e q q q e e q e e e e e e e e q
-----------------|----------7--7--|--5--5-5--5--5-5--|---4-5-7-5------------|
----------3--3-3-|--7--7-7--------|------------------|------------7-5--5---|
-----------------|----------------|------------------|----------------------|
--1--1-1---------|----------------|------------------|----------------------|

q e e q e e q e e q e e q e e q e e q e e h h+ e e
-----------------|------------------|-----------------|------------|--------|
-----------------|------------------|----------3--3-3-|-/7--7-7--5-|----9-9-|
--0--0-0--0--0-0-|--0--0-0--0--0-0--|-----------------|------------|-7------|
-----------------|------------------|--1--1-1---------|------------|--------|

e e e e q q e e e e e e e e e e e e e e e[e e]e e e e e e[e
--9---7-----------|-------------------|--------------------|-----------------
----9---9--7--r--|-------------------|--------------------|-----------------
------------------|--0-0-0-0--0-0-0---|--0-0-0-0--0-0-0-3--|-3-3-3-3--3-3-3--
------------------|-----------------3-|--------------------|----------------3
End half time feel

e]e e e e e e e e e e e e e e[e e]e e e e e e[e e]e e e e e e[e
------------------|------------------|------------------|-------------------|
------------------|------------------|------------------|------------5-7-5--|
----------------5-|-5-5-5-5--5-7-7-8-|-8-8-8-8--8-7-7-8-|-8-8-8-8-8---------|
-3-3-3-3--3-3-3---|------------------|------------------|-------------------|

e]e e e e e e e e e e e e e e e e e e e e e e e e e e e e e e e
----------7--------|-------------------|------------------|-----------------|
-5-5-5-5----7------|-------------------|------------------|-----------------|
--------------0-0--|-0-0-0-0--0-0-0----|-0-0-0-0--0-0-0-3-|-3-3-3-3--5-3-0--|
-------------------|----------------3--|------------------|----------------3|

e e e e e e e e e e e e e e e e e e e e e e e e
------------------|-------------------|-------------------|------------0-2-0|
------------------|------------2-2-2--|-3-3-3-3--3-3-3-3--|-3-3-3-3--3------|
--------------3-3-|-5-5-5-5--5--------|-------------------|-----------------|
-3-3-3-3--3-3-----|-------------------|-------------------|-----------------|

e e e e e e e e e e e e e e e e e e e e e e e e e e e e e e e e
-0-0-0-0--0-0-0-0-|------------------|-------------------|------------------|
------------------|------------------|-------------------|-7-7-7-7--7-7-5---|
------------------|-0-0-0-0--0-0-0-0-|--0-0-0-0--0-5-3-5-|----------------7-|
------------------|------------------|-------------------|------------------|

e e e e e e e e e e e e e e e e e e e e e e e e e e e e e e e e
-------------------|------------------|-------------------|-2-2-0----0-0----|
--5-7--------------|------------------|---------------0-2-|-------2------0--|
------0-0--0-0-0-0-|-0-0-0-0--0-0-0-0-|--0-0-0-0--0-0-----|----------------3|
-------------------|------------------|-------------------|-----------------|

e e e e q e e e e e e e e e e e e e e e e e e e e e e e e e e
-----------------|------------------|-------------------|-------------------|
-----------------|------------------|-------------------|-------------------|
-3-5-3-5--3----0-|-0-0-0-0--0-0-0-0-|--0-0-0-0--0-0-0-0-|--0-0-0-0--0-0-0-0-|
-------------3---|------------------|-------------------|-------------------|

e e e e e e e e e e e e e e e e e e e e e e e e e e e e e e e e
------------------|------------------|------------------|-------------------|
------------------|------------------|------------------|-------------------|
-------0--2-------|-0-0-0-0--0-0-0-0-|-0-0-0-0--0-0-0-0-|-0-0-0-0--0-0-0-0--|
-5-0-3------0-5-3-|------------------|------------------|-------------------|

e e e e e e e e e e e e e e e e e e e e e e e e e e e e e e e e
--------------------|------------------|------------------|-----------------|
--------------------|------------------|------------------|-0-0-0-0--0-0-0-0|
--------0--2--------|-0-0-0-0--0-0-0-0-|-0-0-0-0--0-5-3-4-|-----------------|
--5-0-3------0-5-3--|------------------|------------------|-----------------|

e e e e e e e e e e e e e e e e e e e e e e e e
-----0-0--0--------|------------------|------------------|------------------|
-3-0--------3-0----|------------------|------------------|-0-0-0-0--0-0-0-0-|
----------------3--|-0-0-0-0--0-0-0-0-|-0-0-0-0--0-0-3-4-|------------------|
-------------------|------------------|------------------|------------------|

e e e e e e e e q e e q e e q e e q e e q e e q e e q e
-----0-0--0-0-0-0--|----------------|----------------|----------------|------
-3-0---------------|----------------|----------------|----------------|------
-------------------|-0--0-0--0--0-0-|-0--0-0--0--0-0-|-0--0-0--0--0-0-|-0--0-
-------------------|----------------|----------------|----------------|------
Half time feel

e q e e q e e q e e q e e q q q e e q e e e e e e e e q
-----------|----------------|---------7--7-|-5--5-5--5--5-5-|-4-5-7-5-------|
-----------|---------3--3-3-|-7--7-7-------|----------------|----------7-5-7|
-0--0--0-0-|----------------|--------------|----------------|---------------|
-----------|-1--1-1---------|--------------|----------------|---------------|

q e e q e e q e e q e e q e e q e e q e e q e e q e e q
---------------|----------------|----------------|----------------|----------
---------------|----------------|----------------|----------------|--------3-
0--0-0--0--0-0-|-0--0-0--0--0-0-|-0--0-0--0--0-0-|-0--0-0--0--0-0-|----------
---------------|----------------|----------------|----------------|-1--1-1---

e e e e e e h h+ e e e e e e q+ e e e e e e e e e e e e e
-----|-------------|---------|-9---7------------|------------------|---------
-3-3-|-7-7-7-7--5--|-----9-9-|---9---9--7------|------------------|---------
-----|-------------|-7-------|----------------0-|-0-0-0-0--0-0-0---|-0-0-0-0-
-----|-------------|---------|------------------|----------------3-|---------
End half time feel

e e e e e e e e e e e e e e e e e e e e e e e e e e e e e e e e
---------|------------------|------------------|------------------|----------
---------|------------------|------------------|-0-0-0-0--0-2-2-3-|-3-3-3-3--
-0-0-0-3-|-3-3-3-3--3-3-0---|----------------5-|------------------|----------
---------|----------------3-|-3-3-3-3--3-3-3---|------------------|----------

e e e e e e e e e e e e e e e e e e e e e e e e e e e e e e e e
----------|------------0-2-0-|-0-0-2-7--2-0-----|------------------|---------
-3-2-2-3--|-3-3-3-3--3-------|--------------2---|------------------|---------
----------|------------------|----------------0-|-0-0-0-0--0-0-0---|-0-0-0-0-
----------|------------------|------------------|----------------3-|---------

e e e e e e e e e e e e e e e e e e e e e e e e e e e e e e e e
---------|------------------|------------------|------------------|----------
---------|------------------|------------------|-0-0-0-0--0-2-2-3-|-3-3-3-3--
-0-0-0-3-|-3-3-3-3--5-3-0---|----------------5-|------------------|----------
---------|----------------3-|-3-3-3-3--3-3-3---|------------------|----------

e e e e e e e e e e e e e e e e e e e e e e e e e e e e e e e e
---------|------------0-2-0-|-0-0-0-0--2-0-----|------------------|----------
-3-3-2-3-|-3-3-3-3--3-------|--------------2---|-----7-7--7-7-7-7-|-7-7-7-7--
---------|------------------|----------------0-|-0-0--------------|----------
---------|------------------|------------------|------------------|----------
Guitar Solo

e e e e e e e e e e e e e e e e e e q e e e e e e e e e e e e e
---------|------------------|------------------|-----------------|-----------
-7-5-----|-3-3-3-2--2-2-0-0-|-0-0-0-0--2-2--0--|-------7-7-r-7-7-|-7-7-7-7--7
-----7-0-|------------------|------------------|-0-0-0-----------|-----------
---------|------------------|------------------|-----------------|-----------

e q e e e e e e e e e e e e e e q e e e e e e e e e e e e e e
-------|------------------|------------------|-----------------|-------------
-5-----|------------------|------------------|-------7-7-r-7-7-|-7-7-7-7--7-5
----7--|-8-8-8-7--7-7-5-5-|-5-5-5-5--8-8--5--|-0-0-0-----------|-------------
-------|------------------|------------------|-----------------|-------------

q e e e e e e e e e e e e e e q e e e e e e e e e e e e e e
----|------------------|------------------|------------------|---------------
----|--------------4-4-|-4-4-4-4--4-4--2-|-------7--7-r-7-7-|-7-7-7-7--7-5--
-7--|-8-8-8-7--7-7-----|------------------|-0-0-0------------|---------------
----|------------------|------------------|------------------|---------------

q e e e e e e e e e e e e e e e e e e e e q e e q e e q e e
---|------------------|------------------|-----------------|----------------|
---|------------------|-0-0-0-2--5-2-0---|-----------------|----------------|
-8-|-8-8-8-7--7-7-5-5-|----------------3-|----------7------|-7-------7------|
---|------------------|------------------|-0-0-0-0-----0-0-|----0-0-----0-0-|
Solo 2

q e e q e e q e e e e e e q e e q e e q e e q e e
-----------------|-------------------|------------------|-------------------|
-----------------|------------4-5-7--|------------------|-------------------|
-7-------7-------|--7-------7--------|--7-------7-------|--7-------7--------|
----0-0-----0-0--|-----0-0-----------|-----0-0-----0-0--|-----0-0-----0-0---|

q e e q e e q e e e e e e q e e q e e q e e q e e q e e
----------------|-----------------|----------------|----------------|--------
----------------|-----------------|----------------|----------------|--------
-7-------7------|-7--0-2--5-2-0---|---------7------|-7-------7------|-7------
----0-0-----0-0-|---------------3-|-0--0-0-----0-0-|----0-0-----0-0-|----0-0-

q e e q e e e e e e q e e q e e q e e q e e q e e q e e
--------|-----------------|----------------|----------------|---------------|
--------|-----------4-5-7-|----------------|----------------|---------------|
-7------|-7-------7-------|-7-------7------|-7-------7------|-7-------7-----|
----0-0-|----0-0----------|----0-0-----0-0-|----0-0-----0-0-|----0-0-----0-0|

q e e e e e e q e e q e e q e e q e e q e e q e e q q+ q+
----------------|----------------|----------------|----------------|--------|
2---------------|----------------|----------------|----------------|--------|
---0-2--5-2-0---|----------------|----------------|----------------|--------|
--------------3-|-0--0-0--0--0-0-|-0--0-0--0--0-0-|-0--0-0--0--0-0-|-0-0--0-|

h+ e e q+ q+[q w] q e e q e e q e e q e e q e e q e e
----------|-0--------|------|---------------|---------------|---------------|
----------|-----0--2-|--2--|---------------|---------------|---------------|
----------|----------|------|---------------|---------------|---------------|
-0----0-0-|----------|------|-0--0-0--0--0-0|-0--0-0--0--0-0|-0--0-0--0--0-0|

q e e e e e e q e e q e e q e e q e e q+ q+[q q+] e e e q
-----------------|----------------|----------------|--0---------|-----------|
-----------------|----------------|----------------|------0--2--|-2--0-2-0--|
-----------------|----------------|----------------|------------|----------2|
-0--0-0--0-0-0-0-|-0--0-0--0--0-0-|-0--0-0--0--0-0-|------------|-----------|

e e e e e e e e e e e e e e e e
||-----------------|----------------||------------------|-------------------|
||.----------------|---------------.||------------------|-------------------|
||.----------------|---------------.||------------------|-------------------|
||--0--0-0--0--0-0-|-0--0-0--0--0-0-||-0-0-0-0--0-0-0-0-|-0-0-0-0--0-0-0-0--|
Play 4x

e e e e e e e e e e e e e e e e e e e e e e e e e e e e e e e e
------------------|-------------------|------------------|------------------|
------------------|-------------------|->->->->-->->->->-|------------------|
------------------|-------------------|-7-7-7-7--7-7-7-7-|-7-7-7-7--7-7-7-7-|
-0-0-0-0--0-0-0-0-|-0-0-0-0--0-0-0-0--|------------------|------------------|
Crescendo

e e e e e e e e e e e e e e q e e q e e q e e e e e e e e
-9-9-9-9--9-9-9-9--|-9-7--------------|-----------------|-------------------|
-------------------|-----9-7--9-7--5--|-----------------|-------------------|
-------------------|------------------|-3-3--3--3-3--3--|--3-3-3-3--3-3-3-3-|
-------------------|------------------|-----------------|-------------------|

e e q e e q e e e e e e q e e e e e e e e e e [q e]e e e
-----------------|------5-7--5--------|------------------|------------------|
-0-0--0--0-0--0--|--5-7--------7--0---|------------------|------------------|
-----------------|--------------------|-0-0-0-0--0-0-0-0-|-0-0--0--0-0-0-0--|
-----------------|--------------------|------------------|------------------|

e e e e e e e e e e e e e e e e e e e e e e e e e e e e e e e e
------------------|------------------|-------------------|------------------|
------------------|-7-7-7----5-------|-------------------|--------------5-7-|
--------------5-7-|-------7----7-----|-0-0-0-0--0-0-0-0--|-0-0-0-0--0-0-----|
-0-0-0-0--0-0-----|--------------8-5-|-------------------|------------------|

e e e e e e q e e q e e q e e e e e e e e e e e e e e e e
-----------------|------------------|-------------------|-------------------|
-7-7-7-7--7-5----|------------------|-------------------|-------------------|
---------------7-|--5-7--5----5-----|-0-0-0-0--0-0-0-0--|-0-0-0-0--0-0-0-0--|
-----------------|----------8----8--|-------------------|-------------------|

e e e e e e e e e e q e e q e e e e e e e e e e e e e e e e
------------------|------------------|-------------------|------------------|
------------------|-0-2--0-----------|-------------------|------------------|
-0-0-0-0--0-0-0-0-|----------3-5--3--|-0-0-0-0--0-0-0-0--|-0-0-0-0--0-0-0-0-|
------------------|------------------|-------------------|------------------|

e e e e e e e e e e q e e q e e e e e e e e e e e e e e e e
-------------------|------------------|------------------|------------------|
-------------------|------------------|------------------|------------------|
-0-0-0-0--0-0-0-0--|----------3-5--3--|-0-0-0-0--0-0-0-0-|-0-0-0-0--0-0-3-4-|
-------------------|-3-5--3-----------|------------------|------------------|

e e e e e e e e e e q e e q e e e e e e e e e e e e e e e e
------------------|-----------------|-------------------|-------------------|
-0-0-0-0--0-0-0-0-|-3-0--5--5-------|-------------------|-------------------|
------------------|-----------0--3--|-0-0-0-0--0-0-0-0--|-0-0-0-0--0-0-3-4--|
------------------|-----------------|-------------------|-------------------|

e e e e e e e e e e e e e e e e q e e q e e q e e q e e q e
------------------|------------------|----------------|----------------|-----
-0-0-0-0--0-0-0-0-|-3-0-3-0--3-0-----|----------------|----------------|-----
------------------|--------------3-2-|-0--0-0--0--0-0-|-0--0-0--0--0-0-|-0--0
------------------|------------------|----------------|----------------|-----
Half Time Feel

e q e e q e e q e e q e e q e e q e e q q q e e q e e
-----------|----------------|----------------|---------7--7-|-5--5-5--5--5-5|
-----------|----------------|---------3--3-3/|-7--7-7-------|---------------|
-0--0--0-0-|-0--0-0--0--0-0-|----------------|--------------|---------------|
-----------|----------------|-1--1-1---------|--------------|---------------|

e e e e e e q q e e q e e q e e q e e q e e q e e q e e
-4-5-7-5---------|----------------|----------------|----------------|--------
----------7-5--5-|----------------|----------------|----------------|--------
-----------------|-0--0-0--0--0-0-|-0--0-0--0--0-0-|-0--0-0--0--0-0-|-0--0-0-
-----------------|----------------|----------------|----------------|--------

q e e q e e q e e q e e h h+ e e e e e e e e e e e e e e
--------|----------------|-----------|----------|-9----------------|---------
--------|---------3--3-3-|-7--7-7--5-|------9-9-|---9-7-5--7-5-----|---------
-0--0-0-|----------------|-----------|-7--------|--------------7-0-|-0-0-0-0-
--------|-1--1-1---------|-----------|----------|------------------|---------

e e e e e e e e e e e e e e e e e e e e e e e e e e e e e e e e
---------|------------------|------------------|------------------|----------
---------|------------------|------------------|------------------|----------
-0-0-0---|-0-0-0-0--0-0-0-3-|-3-3-3-3--3-3-0---|----------------5-|-5-5-5-5--
-------3-|------------------|----------------3-|-3-3-3-3--3-3-3---|----------

e e e e e e e e e e e e e e e e e e e e e e e e e e e e e e e e
---------|------------------|------------------|-------7----------|----------
---------|------------------|------------5-7-5-|-5-5-7----7-5-----|----------
-5-7-7-8-|-8-8-8-8--8-7-7-8-|-8-8-8-8--8-------|--------------7-0-|-0-0-0-0--
---------|------------------|------------------|------------------|----------

e e e e e e e e e e e e e e e e e e e e e e e e e e e e e e e e
---------|------------------|------------------|------------------|----------
---------|------------------|------------------|------------------|-0-0-0-0--
-0-0-0---|-0-0-0-0--0-0-0-3-|-3-3-3-3--5-3-----|--------------3-5-|----------
-------3-|------------------|--------------5-3-|-3-3-3-3--3-3-----|----------

e e e e e e e e e e e e e e e e e e e e e e e e e e e e e e e e
---------|------------------|------------0-2-0-|-0-0-0-0--2-0-----|-------.--
-0-2-2-3-|-3-3-3-3--3-3-2-3-|-3-3-3-3--3-------|--------------2---|-------7--
---------|------------------|------------------|----------------3-|-0-0-0----
---------|------------------|------------------|------------------|----------

e e q e e e e e e e e q+ e e e e e e e e e e e q q+ e e e e e
--------|------------------|-------------9-|-----7-----------|--------------|
-r-7--7-|-7-7-7-7--7-------|-------7-7-9---|-9-7---7--5-4--4-|----7--7-7-5-7|
--------|------------7-5-7-|-0--0----------|-----------------|-0------------|
--------|------------------|---------------|-----------------|--------------|

e e e e e e e e q+ e e e e e e e e e e e e e
-7-----------------|----------------|------------------|--------------------|
---7-5----5--------|----------------|------------------|--------7--7-7-5-7--|
-------7----7-3-5--|-3--0--0-0-0-0--|-0-0-0-0--0-0-0-0-|--0-0-0-------------|
-------------------|----------------|------------------|--------------------|

e e e e e e q q+ e e e e e e e e e e e q q+ e e e e e e e e e
-7-5-------------|-----------7---|-----------------|---------------|---------
-----7-5----5----|----7--7-7---7-|-5---5-5--7-5----|----7--7-7-7-7-|-7-5-4-0-
----------7----7-|-0-------------|---7-----------7-|-0-------------|---------
-----------------|---------------|-----------------|---------------|---------

e e e e e e e e e e e e e e e e e e e e e e e e e e e e e e e e
---------|------------------|------------------|------------------|----------
---------|------------------|------------------|-7-7-7-7--7-7-7-7-|-7-7-7-7--
-7-7-5-0-|-3-3-3-0--0-0-0-0-|-0-0-0-0--0-0-0-0-|------------------|----------
---------|------------------|------------------|------------------|----------

e e q e e e e e e e e q e e e e q e e e e e e e e e e e e
---------|--------------7---|-5---------------|------------------|-----------
-7-5-----|-7-7-7-7--7-7---7-|----5----7-5-----|-7-7-7-7--7-7-7-7-|-7-7-5-----
------7--|------------------|------7-------7--|------------------|-------7---
---------|------------------|-----------------|------------------|-----------

e e q e e e[e e]e e e e e e e e e e e e e e e e e e e e e e e
---------|------------------|------------------|------------------|----------
---------|------------------|------------------|-------7--7-7-7-7-|-7-7-5-4--
-7-5-----|-----0-0--0-0-0-0-|-0-0-0-0--0-0-0-0-|-0-0-0------------|----------
------8--|-8-8--------------|------------------|------------------|----------

e e e e e e e e e e e e e e e e e e q e e e e e e e e e e e e
---------|------------------|-----5------------|------------------|----------
---------|-7-7-7-7--5h7-5h7-|-7-7---7--5-5--7--|-7-7-7-7--5h7-5h7-|-7-7-5----
-5-5-7-0-|------------------|------------------|------------------|-------7--
---------|------------------|------------------|------------------|----------

e e e e q+ e h
---------|----------||
---------|----------||
-5-5-3---|-3------r-||
-------5-|-----5----||




Ваше мнение



Капча