My Mirage
From the Iron Butterfly 1968 album 'In-A-Gadda-Da-Vida'
Tabbed and submitted by HeathrowGiant
(listen to song for timing and sequence)
[opening riff (used throughout the song)]
E---------------------------------------------------------
B-------9-10----11-------9--------------8---8-8-9--8------
G---------------------------------------------------------
D----10------------10------10-------8-----8---8-10-8------
A-10---------10-------10------10--6---6-------------------
E---------------------------------------------------------
E---------1----------4------8---8---------8---------------
B---1---1-------------------6-6-6-6---------5-------------
G-------------------------------------5-------------------
D-3---3-----3--6-6-6---6-6----------5---5-----------------
A---------------------------------------------------------
E---------------------------------------------------------
E-----5-------3--------3---5-----7------------------------
B------------------------3---------8----------------------
G---7---5---5---5----4------------------------------------
D-7-------5--------5-------5--/9--------------------------
A---------------------------------------------------------
E---------------------------------------------------------
(verse)
E-8--8---X-----------10-----------------------------------
B-8--8--10-10-----------11--------------------------------
G-8--8--10-10-----7--------10----------10-----------------
D-10-10-10-10---8-------------12----12--------------------
A--------------------------------13-----------------------
E---------------------------------------------------------
E-------3-------3-----5---6---5-------3-------------------
B---------------------------------------------------------
G---5-------5-------5---5---5-----5-----------------------
D-5---5---5---5---5-----------5-5---5-----5-5-5-7-8-7-----
A----------------------------------------------------8----
E---------------------------------------------------------
(1:37)
E--------------4-4-X-4-4-4-4-4----------------------------
B-6-6-6-6--3-3-X-3-3-3-3-3----------------------------
G-7-7-7-7--4-4-X-4-4-4-4-4----------------------------
D-7-7-7-7--2-2-X-2-2-2-2-2----------------------------
A-5-7-5-5---------------------------------------------
E---------------------------------------------------------
E-----3-----3-----5-----5-7-----7-------------------------
B---------------------------------------------------------
G---5---5-----5-----5-------4-----4---4-------------------
D-5-------5-----5-----5-------5-----5---------------------
A---------------------------------------------------------
E---------------------------------------------------------
(1:55)
E---------6----------------------------5------------------
B-----6-----6---6------5-----5---5------------------------
G---8---------8------5---5---------5----------------------
D-8-----8-------------------------------------------------
A------------------3-------3---3-----3--------------------
E---------------------------------------------------------
E---------------5-----6----5-----3-5-6---8----------------
B-----5-----5---------------------------------------------
G---5---5---------5----5-----5---------------------------
D----------------------------------5----------------------
A-3-------3---3-----3----3-----3-------3------------------
E---------------------------------------------------------
[ending (fuzz with sustain)]
A-3~~~----------------------------------------------------
E---------------------------------------------------------
Words by Doug Ingle
In my mind I see a mirage on the wall
What a fortune that lay, it's not there at all
So I guess I'll draw my mirage on the wall
So it can be here to see and enjoyed by all
My Mirage, I'll be drawing you soon
Then all of the beautiful people that come to our home
They'll be seeing you soon
My mirage, they'll be seeing you soon




Ваше мнение



Капча