Main Riff
[------------------------------[
[------------------------------[
[------------------------------[
[--------3-2-------7-6-5------[
[---5-5-------3-5----------3---[
[------------------------------[
In-A-Gadda-Da-Vida, honey.......
[--------------------------------------------[
[--------------------------------------------[
[--------------------------------------------[
[-------------6-7-6-7-8-7-6-----7-6----------[
[-5-7-8-7-8-------------------------8-7--45-[
[--------------------------------------------[
[---------------------------------[----------------------------------[
[---------------------------------[----------------------------------[
[---------------------------------[----------------------------------[
[--5-4-3-2---2-3-4-5---5-4-3-2----[-27--7-6-5-4---4-5-6-7---7-6-5-4-[
[---------------------------------[----------------------------------[
[---------------------------------[----------------------------------[
Oh, won't you.......
[------------------------------------------------------[
[---------------------------------------10~~~~~~/-----[
[---4~~--------------------------10-------------------[
[---4~~------------------12---------------------------[
[---2~~------------------------------------------------[
[------------------------------------------------------[
Please take my haaaaa-aaaaaaa-aaaaaaaaand!

For Carlos Fco. Tamayo Cuevas (xguitar)




Ваше мнение



Капча