From: [email protected] (Phillip McClean)
Subject: TAB: This Time - INXS
This is another gem from the breakthrough INXS album Listen Like Thieves.
This song continues the mixolydian structure found in Kiss the Dirt and
Shine Like It Does.
This Time - INXS (A.Farriss)
Listen Like Thieves
Intro: G
e-2
B-3
G-2 open D chord used in verses
D-0
A-0
E-0
D
I will believe you
D
If you say it's true
D
Girl you know I need you
D
More than any word spoken
D
I've seen you before
D
Turn and walk away
D
You say you won't come back
D
It's just a game anyway
CHORUS
G is the open chord; A is the barre chord 5th fret
the D, C also appear to be open chords
G A D C
e--3---5---2---0
B--0---5---3---1
G--0---6---2---2
D--0---7---0---0
A--2---7---0---3
E--3---5---0---0
G A
We are hoping
G A
Yes and we're praying
D
This time
D
Will be the last time
C G
That we will fight like this
D
This time
D
Will be the last time
C G
That we will fight like this
Lead Break - the notes are broken into groups that have pauses in between
B--2-2-4-2-||-2-2-4-2-||-2-2-2-4-2||-2-2-2-------||-2-2-4-2-||-2-2-2-4-2-||
G----------||---------||----------||-------4-2-0-||---------||-----------||
D
We are always wanting
D
The things we cannot find
D
You know that we are
D
Always wasting time
CHORUS
D
You know I can forget
D
We have fought before
D
I've seen inside your heart
D
And I know it is breaking
CHORUS
The chords for the last two lines appear to be barre chords.
A G D
e--5---3---5
B--5---3---7
G--6---4---7
D--7---5---7
A--7---5---5
E--5---3---5
A
This time
G D
Will be the last time





Ваше мнение



Капча