-------------------------------------------------------------------------------
New Sensation - INXS
-------------------------------------------------------------------------------
Tabbed by: JBMetal311
Email: [email protected]
Tuning: Standard
e|--12-------12--------|-----------------------------------------------------|
B|--12-------10--------|-----------------------------------------------------|
G|--9--------9---------|-----------------------------------------------------|
D|---------------------|------0---0-2----2-2-0-2-----------------------------|
A|---------------------|--2-2---2------2-------------------------------------|
E|---------------------|-----------------------------------------------------|
Chords Middle Riff
e|---------------------------------------------------------------------------|
B|--5--------------------------------------5---------------------------------|
G|--4--------------------------------------4---------------------------------|
D|--2-------0---2-----------2-----2--------2-------0---2---------------------|
A|------0h2---2---------0h2---0h2--------------0h2---2-----------------------|
E|----------------0-----------------0----------------------------------------|
Chorus
e|-----------------|---------------------------------------------------------|
B|--9-9--7-9-7~----|---4b5r4b5r4b5r4~----xx-xx--7h9-999--77--5---------------|
G|--9-9--7-9-7~----|---4b5r4b5r4b5r4~----xx-xx--7h9-999--77--6---------------|
D|-----------------|---------------------------------------------------------|
A|-----------------|---------------------------------------------------------|
E|-----------------|---------------------------------------------------------|
Riff 2(repeat)
| / slide up
| slide down
| h hammer-on
| p pull-off
| ~ vibrato
| + harmonic
| x Mute note
===============================================================================





Ваше мнение



Капча