INXS
Never Tear Us Apart
Transcribed by Daniel Schaumann
Use these chords in the intro to emulate the strings
section on guitar:
Am7 Fadd9
/ / / /
E|3-3-3-3-3-3-3-3-3-3-3-3-3-3-3-3-3-3-3-3-3-3-3-3-|
B|1-1-1-1-1-1-1-1-1-1-1-1-1-1-1-1-1-1-1-1-1-1-1-1-|
G|2-2-2-2-2-2-2-2-2-2-2-2-2-2-2-2-2-2-2-2-2-2-2-2-|
D|------------------------------------------------|
A|0-----------------------------------------------|
E|----------------------3-1-----------------------|
Dm F
/ / / /
E|------------------------5-5-5-5-5-5-5-5-5-5-5-5-|
B|6-6-6-6-6-6-6-6-6-6-6-6-6-6-6-6-6-6-6-6-6-6-6-6-|
G|7-7-7-7-7-7-7-7-7-7-7-7-5-5-5-5-5-5-5-5-5-5-5-5-|
D|7-7-7-7-7-7-7-7-7-7-7-7-------------------------|
A|5-----------------------8-----------------------|
E|------------------------------------------------|

INTRO:
6 |Am | |F | |
8 |Dm | |F | |
Am F
Don't ask me, what you know is true
Dm F
Don't have to tell you, I love your precious heart
C F
I
C F
I was standing
C F
You were there
C F
Two worlds collided
G
And they could never tear us apart
BREAK:
A|-----3--5-----|
E|--5--------5--| x2
Am F
We could live for a thousand years
Dm F
But if I hurt you, I'd make wine from your tears
Am F
I told you that we could fly
Dm F
Cause we all have wings but some of us don't know why
C F
I
C F
I was standing
C F
You were there
C F
Two worlds collided
G
And they could never, ever, tear us apart
BREAK
SOLO CHORDS AS VERSES
C F
I
(Don't ask me)
C F
I was standing
(You know it's true)
C F
You were there
(Worlds collided)
C F
Two worlds collided
(Shining through)
G
And they could never tear us apart
REPEAT TILL FADE

24/11/2001





Ваше мнение



Капча