Song:Elegantly Wasted
Artist:INXS
Tabbed by:Svilen Kostadinov

Standart tunning
It`s a pretty cool song and it's really easy.Just listen to the song to
feel it... and enjoi!

this is the main riff:
G----------------------------------
D----------------------------------
A------1-3---1-3--1-3--------------
E---3------3----3------------------

and sometimes:
G----------------------------------
D------1-3----1-3--1-3-------------
A---3------3-----3-----------------
E----------------------------------

my e-mail:[email protected]





Ваше мнение



Капча