SONG: Systems Overload
BAND: Integrity
ALBUM: Systems Overload
TABBED BY: Matt Ross ([email protected])
intro/chorus
G:-------------------------------|
D:-------------------------------|
A:-0-0---5-5---3-3------------1--|
E:-------------------3-3---013---|

verse
G:-------------------------------|
D:-------------------------------|
A:--555---------6----------------|
E:-----333333-05-----------------|
bridge
G:-------------------------------|
D:-------------------------------|
A:-----------1-0-1-0-3-5---------|
E:-5-55-555----------------------|
^---------^
i'm not positive about that part.
i think it jumps around a bit more,
but this is pretty close
if anyone knows where i could find tabs(guitar, drum, bass) for
any other integrity songs could ya let me know?




Ваше мнение



Капча