-----------------------------------------------
RELEASE THE FIEND - Integrity
-----------------------------------------------
By:
intro verse
e|--------------|-----------------------------|
B|--------------|-----------------------------|
G|--------------|-----------------------------|
D|--7-----------|--7-7-7-------10-10-10-------|
A|--5--2--3-----|--5-5-5------- 8- 8- 8-------|
E|--5--0--1-----|--------0-0-0----------0-0-0-|
bridge chorus
e|-----------------|--------------------------|
B|-----------------|--------------------------|
G|-----------------|--------------------------|
D|--9-9-12-12-7-7--|--------------------------|
A|--7-7-10-10-5-5--|--7/10-10-5/7-7--2--------|
E|-----------------|--5/8---8-3/5-5--0--------|
===============================================




Ваше мнение



Капча