SONG: Psychological Warfare
BAND: Integrity
ALBUM: Humanity Is The Devil
verse
E----------------------------------------------------------------
B----------------------------------------------------------------
G----------------------------------------------------------------
D----------------------------------------------------------------
A--2-4--4-5-5-5-5-4--4-7-7-7-7-4--4-5-5-5-5-4--4-7-5-------------
E--0-2--2-3-3-3-3-2--2-5-5-5-5-2--2-3-3-3-3-2--2-5-3-------------
chorus
E----------------------------------------------------------------
B----------------------------------------------------------------
G----------------------------------------------------------------
D-----------12-12-12-11---11-------------------------------------
A--2-----2--10-10-10--9----9---------------------------------2-4-
E--0-----0---------------------------------------------------0-2-




Ваше мнение



Капча