song - millenial reign
artist - integrity
album - seasons in the size of days
label - victory records
tabbed by - C. Hall
intro verse
E--------------|----0-----0-0---0-0----0--|
B--------------|----0-----0-0---0-0----0--|
G--------------|--------------------------|
D--------------|--------------------------|
A-----5--7-----|--2-----3------5----7-----|
E--1--------5--|--0-----1------3----5-----|
E-----------------------------------------|
B-----------------------------------------|
G-----------------------------------------|
D--9-10--12--7----9--9-7-5--5-------------|
A--7--8--10--5----7--7-5-3--3-5--9--7-----|
E-----------------------------3--7--5-----|
breakdown
E----------------------------------------------------------------
B----------------------------------------------------------------
G----------------------------------------------------------------
D----------------------------------------------------------------
A-----10-----12-----10----9-10--------10-----12b----------9b-----
E--0------8------0------8------10--0------8------3--5--7-------0-
outro (acoustic) end
E----------------------------------------|-----------------------
B----------------------------------------|-----------------------
G----4----4----4---4----4---4------------|-----------------------
D---4-4--4-4--4-4-4-4--4-4-4-4---4---4---|-----------------------
A--2---2--------------0---0-----2-2-2-2--|--2-2-2-2-2------------
E------------3---3-------------0---0-----|--0-0-0-0-0------------




Ваше мнение



Капча