-------------------------------------------------------------------------------
IN CONTRAST OF SIN - Integrity
-------------------------------------------------------------------------------
By: Integrity
intro
e|-------------------------------------|
B|-------------------------------------|
G|-------------------------------------|
D|-------------------------------------|
A|--2----5----2----5----8--8--8--8--2--|
E|--0----3----0----3----6--6--6--6--0--|

verse 1
e|-------------------------------------|
B|-------------------------------------|
G|-------------------------------------|
D|-----------5-4-4--7-5----------------|
A|--2--------3-2-2--5-7----------------|
E|--0----------------------------------|
verse 2
e|-------------------------------------|
B|-------------------------------------|
G|-------------------------------------|
D|------5---4---7---5---9---11---------|
A|--4---3---2---5---3---7---9----------|
E|--2----------------------------------|
chorus
e|-------------------------------------|
B|-------------------------------------|
G|-------------------------------------|
D|--------------------------------7----|
A|--2-------2-----------------5-4-5----|
E|--0-------0-----------------3-2------|
===============================================================================




Ваше мнение



Капча