----------------------------------------------------
HOLLOW - Integrity
----------------------------------------------------
verse chorus
e|--------------------------|
B|--------------------------|
G|--------------------------|
D|--------10-9-9-9-7-7-7-5--|
A|--2-2--- 8-7-7-7-5-5-5-3--|
E|--0-0-0-------------------|
chorus
e|------------------------------------------------|
B|------------------------------------------------|
G|------------------------------------------------|
D|--------------7-7-7-----------------------------|
A|--2-2-2-------5-5-5-------7-9-10-------7-9-10---|
E|--0-0-0-0-0-0-------0-0-0-5-7- 8-0-0-0-5-7- 8---|
e|--------------------------------------------|
B|--------------------------------------------|
G|--------------------------------------------|
D|--------9-7-9-------7-5-7-------------------|
A|--------7-5-7-------5-3-5-------7-9-10------|
E|--0-0-0-------0-0-0-------0-0-0-5-7--8-0-0-0|
e|-------------------------------|
B|-------------------------------|
G|-------------------------------|
D|-------------------------------|
A|-7-9-10-------7-9-10-------2---|
E|-5-7--8-0-0-0-5-7--8-0-0-0-0---|
outro
e|------------------------------------|
B|------------------------------------|
G|------------------------------------|
D|-------5-5-5--------7-7-7-----------|
A|--2----3-3-3-5-5-5--5-5-5----7-7-7--|
E|--0----------3-3-3-----------5-5-5--|
=====================================================




Ваше мнение



Капча