-----------------------------------------------------------------
DISEASED PREY WITHIN CASING - Integrity
-----------------------------------------------------------------

intro
E----------------------------------------------------------------
B----------------------------------------------------------------
G----------------------------------------------------------------
D-----------------------------------------------5----------------
A--2-------2-------2-------2------------------2-3-5-3------------
E--0-0-0-0-0-0-0-0-0-0-0-0-0-0-0-0-0-0-0-0-0--0---3-1------------

chorus
E----------------------------------------------------------------
B----------------------------------------------------------------
G----------------------------------------------------------------
D----------------------------------------------------------------
A--2--5-8--3-5--2--5-8--3-5--------------------------------------
E--0--3-6--1-3--0--3-6--1-3--------------------------------------

verse ending
E--------------------------------|--------------------------------
B--------------------------------|--------------------------------
G--------------------------------|--------------------------------
D--------------------------------|--------------------------------
A--2-----------2--2-2-3-3-5-5-6--|--7--6--5--3--2-----------------
E--0-0-0-0-0-0-0--0-0-1-1-3-3-4--|--5--4--3--1--0-----------------




Ваше мнение



Капча