-------------------------------------------------------
ATF ASSAULT (ALL IS LOST) - Integrity
-------------------------------------------------------

verse
E-----------------------------------------------------|
B-----------------------------------------------------|
G-----------------------------------------------------|
D-----------------------------------------------------|
A--2-2-2-2-2-2-2-2-2-7-5-3-5-5-5-5-5-5-8-8-8-8-8------|
E--0-0-0-0-0-0-0-0-0-5-3-1-3-3-3-3-3-3-6-6-6-6-6------|

verse
E-----------------------------------------------------|
B-----------------------------------------------------|
G-----------------------------------------------------|
D--9-9-9-9-9-9-9-9-9-14-12-10-12-12-12-12-12-7-7-7-7--|
A--7-7-7-7-7-7-7-7-7-12-10--8-10-10-10-10-10-5-5-5-5--|
E-----------------------------------------------------|

chorus
E-----------------------|--------|
B-----------------------|--------|
G-----------------------|--------|
D-----------------------|--------|
A--9-7-9-10-------------|--2-----|
E--7-5-7-8-8-8-8-8-8-8--|--0-----|

finale
E----------------------------------------------------------------
B----------------------------------------------------------------
G----------------------------------------------------------------
D-----14-12-10-12-12-10-7--9-14-12-10-12-12--7-10----7-7-7-7-9---
A--2--12-10--8-10-10--8-5--7-12-10--8-10-10--5--8----5-5-5-5-7---
E--0-------------------------------------------------------------




Ваше мнение



Капча